» » »

Outkast, Roses Tabs (ver.4)

Artists:  A B C D E F G H I J K L M N O P Q R S T U V W X Y Z # 

Roses Tabs (ver.4)

Outkast Tabs
Rating:
0/5 (0 votes)
Hard to play? Try these video lessons and learn fast.
                (Intro1)
This is a Transposition of Roses by Outkast done on piano.

I really love this song, and will hopefully be able to play it on piano soon, I don't 
so much though.


So!, I figured I'd be able to do it on guitar.


Help me out on here if you think I could do better,
Don't just say "Damn. You suck"

Tell me where, and what I should correct and I'll do it.


Thanks.
Any questions,

This is All Ear Transition btw.
I can't read Sheet Music To Save My Life.
xD


Let's get started
-------------------------------------------------------------------------


Normal Tuning

                     (Form a Chord, Pull off on 10p8 first)
                                \/
E-------------------15----12---------------------------------------------|
B--------------8---------------10p8~-------------------------------------|
G-------7h9--------------------12p9~----2~-------12p9--14p9--16--17--16--|
D--5~-----------------------------------4~-------------------------------|
A--7~-----------------------------------5~-------------------------------|
E------------------------------------------------------------------------|


(Cont.)

 ("Bass Chord" If Possible.)
E-----------------------------------------------------------------------|
B--8p5p3----------------------------------------------------------------|
G-------------------------------------12--11--9-------------------------|
D---------7p5--7p5h7p5---7h9---------------------12--9--12h14--9p7--5---|
A-----------------------------------------------------------------------|
E--(8)------------------------------------------------------------------|


E-----------------------------------------------------------------------|
B-----------------------------------------------------------------------|
G-----------9--12h14--12--9--7--4--3--2--3--2--0------------------------|
D--5--7--9----------------------------------------2--0--7--5--7--5--4---|
A-----------------------------------------------------------------------|
E-------------------------------------------------0---------------------|

E------------------|
B------------------|
G-------7-----8--8-|
D----4-----4--9--9-|
A------------------|
E------------------|
            

comments powered by Disqus
↑ Back to top | Outkast Tabs for Roses. Lyrics for acoustic guitar and electric guitar. Tablatures and chords are parodies/interpretations of the original songs. You may use it for private study, scholarship, research or language learning purposes only