» » »

Outkast, Roses Bass tabs (ver.1)

Artists:  A B C D E F G H I J K L M N O P Q R S T U V W X Y Z # 

Roses Bass tabs (ver.1)

Outkast Tabs
 Rating:
3.8/5 (5 votes)
Roses lessons Tabs too difficult? Try these video lessons and learn fast
                This is the main riff, there are small variations during the song, but the chords remain the same.

   |     |     |     |     |     |     |     |     |     |     |     |     |     |     |     | 
G|-----------------------|-----------------------|-----------------------|-----------------------|
D|-2-----------2---2-----|-0--------------5--4--0|-----------------------|-----------------------|
A|-----------------------|-----------------------|-2-----------2---2-----|-2-----------2--2--2--2|
E|-----------------------|-----------------------|-----------------------|-----------------------|

   |     |     |     |     |     |     |     |     |     |     |     |     |     |     |     | 
G|-----------------------|-----------------------|-----------------------|-----------------------|
D|-----------------------|-----------------------|-3-----------2---------|-0---------------------|
A|-0-----------0---0-----|-----------------------|-----------------------|-------------3--2--0---|
E|-----------------------|-3---------------------|-----------------------|----------------------3|

   |     |     |     |     |     |     |     |     |     |     |     |     |     |     |     | 
G|-----------------------|-----------------------|-----------------------|-----------------------|
D|-------------2---2-----|-0--------------5--4--0|-----------------------|-3---------------------|
A|-----------------------|-----------------------|-2-----------2---2-----|-----------------------|
E|-----------------------|-----------------------|-----------------------|-----------------------|

   |     |     |     |     |     |     |     |     |     |     |     |     |     |     |     | 
G|-----------------------|-----------------------|-----------------------|-----------------------|
D|-------------2---2-----|-0-----------0--0--0--0|-3---------------3/5-3-3-----------------------|
A|-----------------------|-----------------------|-----------------------|-3---------------------|
E|-----------------------|-----------------------|-----------------------|-----------------------|
	
            
Submit corrections

comments powered by Disqus
↑ Back to top | Outkast Bass for Roses. Lyrics for acoustic guitar and electric guitar. Tablatures and chords are parodies/interpretations of the original songs. You may use it for private study, scholarship, research or language learning purposes only