>
 >
Rosa Parks

Rosa Parks Guitar Tabs

Outkast - Rosa Parks chords, tabs, tablatures, lyrics

Guitar lessons | Add/correct | Request | Top 50 tabs Artists:  A B C D E F G H I J K L M N O P Q R S T U V W X Y Z 0-9

Rosa Parks Guitar Tabs – Outkast

CD, Sheet music, Poster

Do you like Rosa Parks? Share with your friends now
TabsTabs v2
Outkast - Rosa Parks

These are the main chords to play on an acoustic throughout the song:
-4-4-4-4--0-0-0-0--2-2-2-2--6-6--4--|
-4-4-4-4--0-0-0-0--2-2-2-2--7-7--4--|
-4-4-4-4--1-1-1-1--3-3-3-3--6-6--4--|
-6-6-6-6--2-2-2-2--4-4-4-4--4-4--6--|
-6-6-6-6--2-2-2-2--4-4-4-4-------6--|
-4-4-4-4--0-0-0-0--2-2-2-2-------4--|

The top 3 notes are emphasized, the bottom notes are more ghost notes and aren't played 
much. But I just put the full chords in so that you can play them however you want.

Occasionally I hear the guitar playing this:
-4-4-4-4--0-0-0-0--2-2-2-2--/9-/9--7--7-----|
-4-4-4-4--0-0-0-0--2-2-2-2--/9-/9--7--7--9--|
-4-4-4-4--1-1-1-1--3-3-3-3---------------8--|
-6-6-6-6--2-2-2-2--4-4-4-4------------------|
-6-6-6-6--2-2-2-2--4-4-4-4------------------|
-4-4-4-4--0-0-0-0--2-2-2-2------------------|

or this, at (01:58)
-4-4-4-4--0-0-0-0--2-2-2-2----------------------------|
-4-4-4-4--0-0-0-0--2-2-2-2--/4------------------------|
-4-4-4-4--1-1-1-1--3-3-3-3-----6--4--6p4---4(b1/4)----|
-6-6-6-6--2-2-2-2--4-4-4-4---------------6---------6--|
-6-6-6-6--2-2-2-2--4-4-4-4----------------------------|
-4-4-4-4--0-0-0-0--2-2-2-2----------------------------|

Sometimes in the background I hear an electric guitar doing this:
-15b17~----15p12-15p12-15p12-15p12-15b17~--|
-------------------------------------------|
-------------------------------------------|
-------------------------------------------|
-------------------------------------------|
-------------------------------------------|

fuzzy guitar comes in at (03:50)
----------------------------------------------------|
-----12-14--14b16~--12---------12-14--14b16---------|
-13~-------------------11h13~---------------13-13~--|
----------------------------------------------------|
----------------------------------------------------|
----------------------------------------------------|

Play in that scale until fade out.

9/6/09





Comments


Popular Outkast tabs & chords
Atliens Bass Tabs
Ms. Jackson Bass Tabs
Roses Bass Tabs
Dracula's Wedding Chords
Hey Ya 3 Chords
Hey Ya! 2 Chords
Happy Valentine's Day 1 Tabs
Protoype Tabs
Roses Tabs
Whole World Riff Tabs


Song lyrics



↑ Back to top | Tablatures and chords are parodies/interpretations of the original songs. You may use it for private study, scholarship, research or language learning purposes only
© 2014 AZChords.com Contact us | Privacy policy | DMCA | Add/correct tabs | Request tabs | Top 50 tabs