» » »

Outkast, Hey Ya Tabs (ver.3)

Artists:  A B C D E F G H I J K L M N O P Q R S T U V W X Y Z # 

Hey Ya Tabs (ver.3)

Outkast Tabs
 Rating:
4/5 (4 votes)
Hey Ya lessons Tabs too difficult? Try these video lessons and learn fast
                Outkast Hey Ya acoustic tab

CVUDVU1vY&NR=1 by Hans80. Its a fingerstyle, and standard tuning.

chorus x2

e||------0-----------|--------------------|
B||----------3-1-0---|--0---0h1-0---------|
G||----------------0-|--------------0---0-|
D||------------------|----------------2---|
A||----2-------------|--3-----------------|
E||--3---------------|--------------------|
     e e q   e e e e    q   e   q.  e e e 

e||--------------------|----------|---------------------|
B||--0---0h1-0---------|--0---1---|-----0-----------0---|
G||--------------0---0-|----0---0-|----1----1-----1---1-|
D||----------------2---|----------|---2-------2---------|
A||--3-----------------|--2-------|--2------------------|
E||--------------------|----------|---------------------|
     q   e   q.  e e e    e e e e    q      e q   e e e

e||------------0-----|
B||----------0---0---|
G||--------1-------1-|
D||------2-----------|
A||----2-------------|
E||--0---------------|
     e e e e e e e e

verse x2

e||----------------0-|------------------|
B||----------0-1-3---|----------1-------|
G||------------------|------0-----0---0-|
D||------0-----------|----2---2-----2---|
A||----2---2---------|--3---------------|
E||--3---------------|------------------|
     e e e e e e e e    e e e e e e e e

e||----------------0-|----------|-------------------|
B||----------0-1-3---|--3-1-0---|-----0---------0---|
G||------0-----------|--------0-|----1--1-----1---1-|
D||----2---2---------|----------|---2-----2---------|
A||--3---------------|--2-------|--2----------------|
E||------------------|----------|-------------------|
     e e e e e e e e    e e e e    e    e q   e e e

e||------------0-----|
B||----------0---0---|
G||--------1-------1-|
D||------2-----------|
A||----2-------------|
E||--0---------------|
     e e e e e e e e
            
Submit corrections

comments powered by Disqus
↑ Back to top | Outkast Tabs for Hey Ya. Lyrics for acoustic guitar and electric guitar. Tablatures and chords are parodies/interpretations of the original songs. You may use it for private study, scholarship, research or language learning purposes only