>
 >
Shot In The Dark

Shot In The Dark Guitar Tabs

Osbourne Ozzy - Shot In The Dark chords, tabs, tablatures, lyrics

Guitar lessons | Add/correct | Request | Top 50 tabs Artists:  A B C D E F G H I J K L M N O P Q R S T U V W X Y Z 0-9

Shot In The Dark Guitar Tabs – Osbourne Ozzy

CD, Sheet music, Poster

Do you like Shot In The Dark? Share with your friends now
TabsTabs v2
PROPS GO TO: Pain6iller

SHOT IN THE DARK
                          As recorded by Ozzy Osbourne

Words by Ozzy Osbourne

Music by Phil Soussan

          Bm                 Aadd9/B                G/B                   C
      x 0 9 7 7 7         x 0 11 9 10 7         x 0 9 7 8 7          x 5 5 5 x x

           D                   B5                  E/G#                  G5
      x 7 7 7 x x          x 0 4 x x x          2 5 x x x x          1 3 x x x x

          D5                   C5
     8 10 x x x x          6 8 x x x x

Gtr I (F# B D G B E) - 'Untitled'                 Look at the tuning to get it right
Gtr II (F# B D G B E) - 'Untitled'
Gtr III (F# B D G B E) - 'Untitled'           Please Rate it
Gtr IV (F# B D G B E) - 'Untitled'
Gtr V (F# B D G B E) - 'Fills'

 Prelude
  Moderate Rock Q=124
  Bm   Aadd9/B   Bm     Aadd9/B              G/B     Aadd9/B   G/B
 4/4
  Gtr III
  Q.   E +H        Q.    E   +H                Q.    E  +Q.    E
  |    |  |        |     |    |                |     |   |     |
  /    /  /        /     /    /                /     /   /     /

  Gtr I
                                                         ~~~~~
  W                Q.    E   +Q     Q         +H        +H
|--------------|---------------------------|---------------------|
|--------------|-----()--b7===|=()r====()-----|
|--------------|---------------------------|---------------------|
|--------------|---------------------------|---------------------|
|--------------|---------------------------|---------------------|
|--------------|---------------------------|---------------------|


  +W
   |
   /

   E  E      +E    E      +E    +E    +Q
|--------------------------------------------|
|----[3]b5==([3])r[3]b7==([3])-([3])-([3])r==|
|--------------------------------------------|
|--------------------------------------------|
|--------------------------------------------|
|--------------------------------------------|


  Bm      Aadd9/B   Bm     Aadd9/B
   Q.     E +H        Q.    E   +H
   |      |  |        |     |    |
   /      /  /        /     /    /

  +E  E Q    H        Q.    E   +Q     Q
|-----------------|------------------------|
|-(3)-------------|-----()----|
|-----------------|------------------------|
|-----------------|------------------------|
|-----------------|------------------------|
|-----------------|------------------------|


  G/B     Aadd9/B  G/B
    Q.    E +Q.      E            +W
    |     |  |       |             |
    /     /  /       /             /

                                            Gtr IV
                                            TP
    H.           E   S    S        H.       Q
|-------------------------|-^------------||
|-()----------------------|-^------------||
|----------------------------|-^------------||
|------------------------|-^()------x\--||
|------------------------|-^()------x\--||
|----------------------------|------------------||


   Intro
    Bm7   A/B               Bm7 A/B                 G/B   A7/B    G/B
    Gtrs I, II
      PM|       PM------|     PM|       PM------|     PM|
    E E E E +E  S S S S E   E E E E +E  S S S S E   E E E E +E  E E E
||------------------------|-----------------------|-------------------|
||o-----------------------|-----------------------|-------------------|
||--7-----6-(6)-----------|-7-----6-(6)-----------|-7-----6-(6)S2---4-|
||--7-----7-(7)-----------|-7-----7-(7)-----------|-5-----5-(5)S2h5-5-|
||o---0-0-------0-0-----0-|---0-0-------0-0-----0-|---0-0-------------|
||------------------0-3---|-----------------0-3---|-------------------|


        PM------|
  +S  S E E E E E  E      +S    +S
|------------------------------------|
|------------------------------------|
|-(4)--------------------------------|
|-(5)p0-5-----0-2-[0]b2==([0])r([0])-|
|---------5-0------------------------|
|------------------------------------|


  Bm7   A/B             Bm7   A/B
    PM|       PM------|     PM|       PM------|
  E E E E +E  S S S S E   E E E E +E  S S S S E
|-----------------------|------------------------|
|-----------------------|------------------------|
|-7-----6-(6)-----------|-7-----6-(6)------------|
|-7-----7-(7)-----------|-7-----7-(7)------------|
|---0-0-------0-0-----0-|---0-0-------0-0-----0--|
|-----------------0-3---|-----------------0-3----|


  G/B   A7/B      G/B
    PM|
  E E E E +E  E E E
|-------------------|
|-------------------|
|-7-----6-(6)S2---4-|
|-5-----5-(5)S2h5-5-|
|---0-0-------------|
|-------------------|
|
| Gtr V
| W
|-------------------|
|-------------------|
|-------------------|
|-------------------|
|-------------------|
|-------------------|


  E  a      +S    +S      +Q          a      +S    +S       +E          +Q
|-------------------------------------------------------------------------------|
|---[5]b7==([5])r([5])b7-([5])-------[5]b7==([5])r([5])b7==([5])-------([5])r\--|
|-------------------------------------------------------------------------------|
|-------------------------------------------------------------------------------|
|-------------------------------------------------------------------------------|
|-0-----------------------------------------------------------------------------|
|
|                                                                        ~~~~~~~
|                              |-3-|
| E  a      +E            +E   S S S          E              E    a     +Q
|-------------------------------------------------------------------------------|
|---[5]b7==([5])r========([5])-2h5p2-------------------------2------------------|
|-x-------------------------------------------2------------------[2]b4-([2])----|
|-------------------------------------------------------------------------------|
|-------------------------------------------------------------------------------|
|-------------------------------------------------------------------------------|


 Verse
  B5
  Gtrs I, II
  W                  +W
  |                   |
  /                   /

  Gtr III
  E E E E +E  E Q     E E E E E E E E
|-------------2----|------------------|
|-------2-(2)------|----------2---2---|
|-----4------------|--------4---4---2-|
|---4--------------|------4-----------|
|-0----------------|----0-------------|
|------------------|------------------|


  Em/B             Em6/B             Bsus2
  E E E E +H       E E E E E E E E   E E E E +H
|-------0-(0)----|-------------0---|-------2-(2)----|
|-------0-(0)----|---------2-----2-|-------2-(2)----|
|-----4----------|-------4---4-----|-----4----------|
|---5------------|-----5-----------|---4------------|
|-0--------------|---0-------------|-0--------------|
|----------------|-----------------|----------------|


                B7suEm/B             Em6/B
  E E E E E E E E   E E E E +H       E E E E E E E E
|-----------------|-------0-(0)----|-------------0---||
|---------2---2---|-------0-(0)----|---------2-----2-||
|-------4---4---2-|-----4----------|-------4---4-----||
|-----4-----------|---5------------|-----5-----------||
|---0-------------|-0--------------|---0-------------||
|-----------------|----------------|-----------------||


 Pre-Chorus
  $
  G/B    A7/B   G/B           A7/B   G/B
  Gtrs I, II
     PM|                  PM|
   E E E E +Q   E S S   E E E E +Q   E S S
|---------------------|--------------------|
|---------------------|--------------------|
|--7-----6-(6)--7-x-x-|-7-----6-(6)--7-x-x-|
|--5-----5-(5)--5-x-x-|-5-----5-(5)--5-x-x-|
|----0-0--------------|---0-0--------------|
|---------------------|--------------------|
|
| Gtr III
|  Q   E E +Q   Q       Q   E E +Q   Q
|---------------------|-----0--------------|
|---------------------|--------------------|
|--7-----6-(6)--7-----|-7-----6-(6)--7-----|
|---------------------|--------------------|
|---------------------|--------------------|
|---------------------|--------------------|
|
| Gtr V
|  >
|  ~~
|  W                    W
|-14------------------|--------------------|
|---------------------|--------------------|
|---------------------|--------------------|
|---------------------|--------------------|
|---------------------|--------------------|
|---------------------|--------------------|


  Bm    Bsus2  B5      Bsus4 Bsus2  B5      G/B   A7/B    G/B
    PM|                  PM|                  PM|
  E E E E +Q   E S S   E E E E +Q   E S S   E E E E +Q    E S S
|--------------------|--------------------|----------------------|
|--------------------|--------------------|----------------------|
|-7-----6-(6)--4-x-x-|-9-----6-(6)--4-x-x-|-7-----6-(6)---7-x-x--|
|-4-----4-(4)--4-x-x-|-4-----4-(4)--4-x-x-|-5-----5-(5)---5-x-x--|
|---0-0--------------|---0-0--------------|---0-0----------------|
|--------------------|--------------------|----------------------|
|
| Q   E E +Q   Q       Q   E E +Q   Q       Q   E E +E  E Q
|-----0--------------|-----0--------------|-----0-------0--------|
|--------------------|--------------------|----------------------|
|-7-----6-(6)--4-----|-9-----6-(6)--4-----|-7-----6-(6)---7------|
|--------------------|--------------------|----------------------|
|--------------------|--------------------|----------------------|
|--------------------|--------------------|----------------------|


        A7/B   G/B     Bm/F# F#5     Bm/F#F#5
    PM|                  PM|
  E E E E +Q   E S S   E E E E +Q    Q    H.      Q
|--------------------|------------------|------------||
|--------------------|------------------|------------||
|-7-----6-(6)--7-x-x-|-7-----6-(6)---4--|-6----------||
|-5-----5-(5)--5-x-x-|-4-----4-(4)---4--|-4-------x--||
|---0-0--------------|------------------|------------||
|--------------------|---0-0------------|------------||
|
| Q   E E +Q   E E     Q   Q   +E  E Q    W
|-----0--------0-----|------------------|------------||
|--------------------|-----7---(7)-7----|------------||
|-7-----6-(6)----6---|---------------6--|------------||
|--------------------|-4----------------|-4----------||
|--------------------|------------------|------------||
|--------------------|------------------|------------||


 Chorus
  B5           A5/B      BmA/B       E5    D5       B5
  Gtrs I, II
                       PM        PM
  W              E E E E E  Q    E    Q  E  E  +Q   E E
|--------------|-------------------|--------------------|
|--------------|-------------------|--------------------|
|-4------------|-x-9p7---7p=6\-----|--------------------|
|-4------------|---7-----7-(7)\----|--------------------|
|-0------------|-------0-----------|-12--x-10-(10)--7-7-|
|--------------|-----------------0-|-10-----8--(8)--5-5-|
|
| Gtr V
|                      PM        PM
| H    +Q.   E   E E E E E  Q    E    W
|--------------|-------------------|--------------------|
|--------------|-------------------|--------------------|
|-4----(4)---4s|=7-9p7---7p=6\-----|--------------------|
|-4----(4)---4s|=7-7-----7-(7)\----|--------------------|
|-0----(0)-----|-------0-----------|--------------------|
|--------------|-----------------0-|--------------------|


    C5             B5         A5/B    B5   A5/Bm7
                                         PM
  E E H    S S E   W          E E E a  E E Q  E
|----------------|----------|-------------------|
|----------------|----------|-------------------|
|----------------|-4--------|-9p7-9-9s11---9--7-|
|----------------|-4--------|-7---7-7s=9---7--7-|
|-x-8-8--------0-|-0--------|------------0------|
|---6-6----0h3---|----------|-------------------|


                        1.
  E5    D5        B5      C5
   Q  E  E  +Q    E E   E E H.        +W      3x
|---------------------|-------------|---------||
|---------------------|-------------|--------o||
|---------------------|-------------|---------||
|---------------------|-------------|---------||
|-12--x-10-(10)\--7-7-|-x-8-8-------|-(8)----o||
|-10-----8--(8)\--5-5-|---6-6-------|-(6)-----||


  2.,3.
    C5                  B5         A5B5     A5/B  Bm7   A5B5
              PM----|                   PM|   PM|   PM|      PM|
  E E Q  +Q   S S S S   W          a  E S S E S S E S S S  S S S
|---------------------|----------|-------------------------------|
|---------------------|----------|-------------------------------|
|---------------------|-4--------|-9s11-----9-----7-----9s11-----|
|---------------------|-4--------|-7s=9-----7-----7-----7s=9-----|
|-x-8-8--(8)------0h3-|-0--------|------0-0---0-0---0-0------0-0-|
|---6-6--(6)--0h3-----|----------|-------------------------------|


                                              To Coda
  E5    D5        B5      C5                 C N.C.
                                             PM----|
   Q  E  E  +Q    E E   E E H.        +H     e e e e
|---------------------|-------------|-----------------||
|---------------------|-------------|-----------------||
|---------------------|-------------|-----------------||
|---------------------|-------------|-----------------||
|-12--x-10-(10)\--7-7-|-x-8-8-------|-(8)-------------||
|-10-----8--(8)\--5-5-|---6-6-------|-(6)----6-6-6-6--||


 Guitar Interlude
  D5                                 C5
  Gtr II
  W             +W                 E E +H.
  |              |                 | |  |
  /              /                 / /  /

  Gtr I
            PM       PM|     PM|
  H    Q  E e    E E e e E E e e   H        Q  E  E
|-------------|------------------|-------------------|
|-------------|-10s7-----8s7-----|-------------------|
|-----------7-|------7-------7---|---------------(0)-|
|-------------|--------7-------7-|-------------------|
|-------------|------------------|-------------------|
|-------------|------------------|-------------------|


                         D5
  +Q.    S S E E E E   E E +H.           +H.          E E
   |     | | | | | |   | |  |             |           | |
   /     / / / x / x   / /  /             /           / x

   E E E E   E E E E   H        Q  E e    E E e e E E e e
|--------------------|-----------------|------------------|
|--8s5-------7s5-----|-----------------|-10s7-----8s7-----|
|------5---------5---|---------------7-|------7-------7---|
|--------5---------5-|-----------------|--------7-------7-|
|--------------------|-----------------|------------------|
|--------------------|-----------------|------------------|


    C5
  E E +H.             +H       Q   E E
  | |  |               |       |   | |
  / /  /               /       /   / x

  H        Q  E  E     E E E E E E E E
|-------------------|------------------||
|-------------------|--8s5-----7s5-----||
|---------------(0)-|------5-------5---||
|-------------------|--------5-------5-||
|-------------------|------------------||
|-------------------|------------------||


 Guitar Solo
  B5                   B5                            B5
           E    E        Q     E   E              E  E
           |    |        |     |   |              |  |
           /    o        /     x   o              x  /

                         ~~~~~~~~~~               ~~~~
                                   |-3--|
   a      +E   +E       +Q    +E   S  S S  a     +Q
|----------------------------------7-------------------|
|-10b12==(10)r(10)b12==(10)--(10)r---10-7-10b12-(10)---|
|------------------------------------------------------|
|------------------------------------------------------|
|------------------------------------------------------|
|------------------------------------------------------|


                     B5                                   E/G#
  +E            E    Q                 E     E         E  E
   |            |    |                 |     |         |  |
   /            o    /                 x     o         x  /

                                                       ~~~
   |-3--|       |3-| |-3-|       |3-|  |-3-|
   S  S S a    +S  E S S S a    +S  E  S S S S S a    +Q
|--7--------------------------------------------------------|
|----10p7----------7-7h8p7----------7-----------------------|
|---------9b11-(9)---------9b11-(9)---10p9p7---7-9b11-(9)---|
|--------------------------------------------9--------------|
|-----------------------------------------------------------|
|-----------------------------------------------------------|


           E/G#              G5       G5
  +E   E   Q     E   E     E E   +E E E  E E E E E
   |   |   |     |   |     | |    | | |  | | | | |
   /   o   /     x   o     x /    / o /  o o o o o

                                           ~
   |--3--| |-3-| |--3--|
  +Q     E E E E E E   E a E E    E E E  E H
|------------------------------|-------------------|
|------------------------------|-------------------|
|-(9)r---9-6-----6-------------|-------------------|
|------------9-7---7-----7h9---|-------------------|
|----------------------7-----5-|--5s7-7s10s7-------|
|------------------------------|-------------------|


  B5    B5               G5           B5                        E/G#
    E E Q       E E  E   E       +E E  Q       E        E   E   E
    | | |       | |  |   |        | |  |       |        |   |   |
    / o /       x o  x   /        / o  /       x        o   x   /

                                                            ~~~~
  a E E S S S S E E  S S S S   a  E E  S S S S S S     +E  +Q
|----------------------------|------------------------------------|
|----------------------------|--------10p7---7--------------------|
|-------9p6---6-----11p7---7-|------7------7---7h9b11==(9)-(9)r---|
|-5h7-7-----7---7-7------9---|-7s=9-------------------------------|
|----------------------------|------------------------------------|
|----------------------------|------------------------------------|


                 E/G#                    G5
  +E     E       Q       E     E       E E
   |     |       |       |     |       | |
   /     o       /       x     o       x /

   E.      E.      E     E.      E.      E
|----------------------------------------------|
|--2tr10---3tr10---5tr10-7tr10---5tr10---3tr10-|
|----------------------------------------------|
|----------------------------------------------|
|----------------------------------------------|
|----------------------------------------------|


                         D.S. al Coda
           G5
  +E     E E     E  E     E  E     E
   |     | |     |  |     |  |     |
   /     o /     o  o     o  o     o

   Q       Q        Q        Q
|-------------------------------------||
|--7tr14---9tr14---10tr14---12tr14----||
|-------------------------------------||
|-------------------------------------||
|-------------------------------------||
|-------------------------------------||


 Outro
  &
  Bm7   A/B               Bm7   A/B               G/B   A7/B      G/B
  Gtrs I, II
    PM|       PM------|     PM|       PM------|     PM|
  E E E E +E  S S S S E   E E E E +E  S S S S E   E E E E +E  E E E
|-----------------------|-----------------------|-------------------|
|-----------------------|-----------------------|-------------------|
|-7-----6-(6)-----------|-7-----6-(6)-----------|-7-----6-(6)S2---4-|
|-7-----7-(7)-----------|-7-----7-(7)-----------|-5-----5-(5)S2h5-5-|
|---0-0-------0-0-----0-|---0-0-------0-0-----0-|---0-0-------------|
|-----------------0-3---|-----------------0-3---|-------------------|


        PM------|
  +S  S E E E E E  E      +S    +S
|------------------------------------|
|------------------------------------|
|-(4)--------------------------------|
|-(5)p0-5-----0-2-[0]b2==([0])r([0])-|
|---------5-0------------------------|
|------------------------------------|


  Bm7   A/B               Bm7   A/B
    PM|       PM------|     PM|       PM------|
  E E E E +E  S S S S E   E E E E +E  S S S S E
|-----------------------|------------------------|
|-----------------------|------------------------|
|-7-----6-(6)-----------|-7-----6-(6)------------|
|-7-----7-(7)-----------|-7-----7-(7)------------|
|---0-0-------0-0-----0-|---0-0-------0-0-----0--|
|-----------------0-3---|-----------------0-3----|


  G/B   A7/B      G/B                           Bm7   A/B
    PM|                                           PM|       PM------|
  E E E E +E  E E E   +E  S S E S S E a E E E   E E E E +E  S S S S E
|-------------------|-------------------------|-----------------------|
|-------------------|---------3-----5---------|-----------------------|
|-7-----6-(6)S2---4-|-(4)-2s4---4s6---6s4-4p3-|-7-----6-(6)-----------|
|-5-----5-(5)S2h5-5-|-(5)---------------------|-7-----7-(7)-----------|
|---0-0-------------|-------------------------|---0-0-------0-0-----0-|
|-------------------|-------------------------|-----------------0-3---|


  Bm7   A/B               G/B   A7/B      G/B
    PM|       PM------|     PM|
  E E E E +E  S S S S E   E E E E +E  E E E
|-----------------------|-------------------|
|-----------------------|-------------------|
|-7-----6-(6)-----------|-7-----6-(6)S2---4-|
|-7-----7-(7)-----------|-5-----5-(5)S2h5-5-|
|---0-0-------0-0-----0-|---0-0-------------|
|-----------------0-3---|-------------------|


                                          ~~~
        |--3--|      |-3-|       |3|
  +E    S  S  S S  S S S S S T T E S a   +Q
|----------------------------------4-----------*|
|-----/12p11p10-9-10-9p8p7-5h6h7h8---7b8-(7)---*|
|-(4)------------------------------------------*|
|-(5)------------------------------------------*|
|----------------------------------------------*|
|----------------------------------------------*|


Duration Legend
---------------
W - whole; H - half; Q - quarter; E - 8th; S - 16th; T - 32nd; X - 64th; a - acciaccatura
+ - note tied to previous; . - note dotted; .. - note double dotted
Uncapitalized letters represent notes that are staccato (1/2 duration)
Irregular groupings are notated above the duration line
Duration letters will always appear directly above the note/fret number it represents the
duration for.  Duration letters with no fret number below them represent rests.  Multi-
bar rests are notated in the form Wxn, where n is the number of bars to rest for.  Low
melody durations appear below the staff

Tablature Legend
----------------
 h   - hammer-on
 p   - pull-off
 b   - bend
 pb  - pre-bend
 r   - bend release (if no number after the r, then release immediately)
 /\  - slide into or out of (from/to "nowhere")
 s   - legato slide
 S   - shift slide
  - natural harmonic
[n]  - artificial harmonic
n(n) - tapped harmonic
 ~   - vibrato
 tr  - trill
 T   - tap
 TP  - trem. picking
 PM  - palm muting
\n/  - tremolo bar dip; n = amount to dip
 \n  - tremolo bar down
 n/  - tremolo bar up
/n\  - tremolo bar inverted dip
 =   - hold bend; also acts as connecting device for hammers/pulls
   - volume swell (louder/softer)
 x   - on rhythm slash represents muted slash
 o   - on rhythm slash represents single note slash

Misc Legend
-----------
 |  - bar
||  - double bar
||o - repeat start
o|| - repeat end
*|  - double bar (ending)
 :  - bar (freetime)
 $  - Segno
 &  - Coda
Tempo markers -  = BPM(8/16=s8/s16), where s8 = swing 8ths, s16 = swing 16ths





Comments


Popular Osbourne Ozzy tabs & chords
Dreamer Chords
Believer 1 Tabs
Close Your Eyes Forever Tabs
Crazy Train 3 Tabs
I Just Want You Tabs
Mr Crowly Tabs
Mr Tinkertrain Tabs
Paranoid 1 Tabs
See You On The Other Side 1 Tabs
Tomorrow Intro Tabs


Song lyrics



↑ Back to top | Tablatures and chords are parodies/interpretations of the original songs. You may use it for private study, scholarship, research or language learning purposes only
© 2014 AZChords.com Contact us | Privacy policy | DMCA | Add/correct tabs | Request tabs | Top 50 tabs