>
 >
Crazy Train Correct Easy

Crazy Train Correct Easy Guitar Tabs

Osbourne Ozzy - Crazy Train Correct Easy chords, tabs, tablatures, lyrics

Guitar lessons | Add/correct | Request | Top 50 tabs Artists:  A B C D E F G H I J K L M N O P Q R S T U V W X Y Z 0-9

Crazy Train Correct Easy Guitar Tabs – Osbourne Ozzy

CD, Sheet music, Poster

Do you like Crazy Train Correct Easy? Share with your friends now
Tabs
Intro(bass)
E------------------------------------------
B------------------------------------------
G------------------------------------------
D------------------------------------------   2x
A-------0--0------------5----5-------------
E--2--2------0--0--2--2--------0----0------

E--------------------------------------------------
B--------------------------------------------------
G--------------------------------------------------
D------------0-------------------------------------
A-------4----------4-----2---0-----0--2--0---------
E--2--2---2-----2-----2---------4-----------4--0---

E---------------------------------------------------
B---------------------------------------------------
G---------------------------------------------------
D------------0--------------------------------------
A-------4----------4-----2---0-----0--2--0----------
E--2--2---2-----2-----2---------4-----------4--0----

E---------------------------------------------------
B---------------------------------------------------
G---------------------------------------------------
D------------0--------------------------------------
A-------4----------4-----2---0-----0--2--0----------
E--2--2---2-----2-----2---------4-----------4--0----

E------------------------------3------0----
B------------------------------2------0----
G------------------------------3------1----
D------------0-----------------0------2----
A-------4----------4------------------2----
E--2--2---2-----2-----2---------------0----

Verse (there's a bunch of palm mutes and fast bits not shown)
E--------0-----------------2--------0---------------
B--------2--------0--------3--------2--------2------
G--------2--------1--------2--------2-----2--------- 10X
D--------2--------2--------0--------2--2------------
A--0--0--0--0--0--2--0--0--0--0--0--0---------------
E---------------------------------------------------


Chorus
E------------------------------------------
B------------------------------------------
G-----------------7b~------------------7---
D--4-----4---4----7b~----4-----4---4---7---
A--4-----4---4----5b~----4-----4---4---5---
E--2--0--2---2-----------2--0--2---2-------

E--------------------------------------------------------
B--------------------------------------------------------
G-2--2--2--2---------------------------------------------
D-2--2--2--2--2--2--2--2--4--4--4--4---4-4-4-4-4-4-4-4---
A-0--0--0--0--2--2--2--2--4--4--4--4---4-4-4-4-4-4-4-4---
E-------------0--0--0--0--2--2--2--2---2-0-2-0-2-0-2-0---

E---------------------------------------------------
B---------------------------------------------------
Gó2--2--2--2--------------------------2-2-2---------
Dó2--2--2--2--2--2--2--2--4-----4-----2-2-2--2--2---
A-0--0--0--0--2--2--2--2--4-----4-----0-0-0--2--2---
E-------------0--0--0--0--2--0--2------------0--0---

E---------------------------------------------------------
B--------------------------------------------------------
G--------------7-----9-----------------------
D--4-----4-----5-----9------------------------
A--4-----4-----5-----7------------------------
E--2--0--2------------------------------------------

Verse 
E--------0-----------------2--------0---------------
B--------2--------0--------3--------2--------2------
G--------2--------1--------2--------2-----2--------- 10X
D--------2--------2--------0--------2--2------------
A--0--0--0--0--0--2--0--0--0--0--0--0---------------
E---------------------------------------------------

Chorus
E------------------------------------------
B------------------------------------------
G-----------------7b~------------------7---
D--4-----4---4----7b~----4-----4---4---7---
A--4-----4---4----5b~----4-----4---4---5---
E--2--0--2---2-----------2--0--2---2-------

E--------------------------------------------------------
B--------------------------------------------------------
G-2--2--2--2---------------------------------------------
D-2--2--2--2--2--2--2--2--4--4--4--4---4-4-4-4-4-4-4-4---
A-0--0--0--0--2--2--2--2--4--4--4--4---4-4-4-4-4-4-4-4---
E-------------0--0--0--0--2--2--2--2---2-0-2-0-2-0-2-0---

E---------------------------------------------------
B---------------------------------------------------
Gó2--2--2--2--------------------------2-2-2---------
Dó2--2--2--2--2--2--2--2--4-----4-----2-2-2--2--2---
A-0--0--0--0--2--2--2--2--4-----4-----0-0-0--2--2---
E-------------0--0--0--0--2--0--2------------0--0---

E------------------------
B------------------------
G--------------7-----9---
D--4-----4-----5-----9---
A--4-----4-----5-----7---
E--2--0--2---------------


PRE-SOLO THINGY
E-----------------------------------------
B-----------------------------------------
G--------2--2--------------7--7--9--9------2x
D--4--4--2--2--2--2--4--4--7--7--9--9------
A--4--4--0--0--2--2--4--4--5--5--7--7-----
E--2--2--------0--0--2--2-----------------

SOLO CHORDS
E----------------------------------------------------
B---------------------------------------------------
G--11-----9--7------6---4--------2-----------------
D--11-----9--7------6---4--------2--------2--------4x
A---9-----7--5------4---2--------0--------2---------
E-----------------------------------------0--------

E--------------------------------------------------
B--------------------------------------------------
G--------------------------------------------------
D------------0-------------------------------------
A-------4----------4-----2---0-----0--2--0---------
E--2--2---2-----2-----2---------4-----------4--0---

E---------------------------------------------------
B---------------------------------------------------
G---------------------------------------------------
D------------0--------------------------------------
A-------4----------4-----2---0-----0--2--0----------
E--2--2---2-----2-----2---------4-----------4--0----

E---------------------------------------------------
B---------------------------------------------------
G---------------------------------------------------
D------------0--------------------------------------
A-------4----------4-----2---0-----0--2--0----------
E--2--2---2-----2-----2---------4-----------4--0----

E------------------------------3------0----
B------------------------------2------0----
G------------------------------3------1----
D------------0-----------------0------2----
A-------4----------4------------------2----
E--2--2---2-----2-----2---------------0----

Verse 
E--------0-----------------2--------0---------------
B--------2--------0--------3--------2--------2------
G--------2--------1--------2--------2-----2--------- 10X
D--------2--------2--------0--------2--2------------
A--0--0--0--0--0--2--0--0--0--0--0--0---------------
E---------------------------------------------------

Chorus
E------------------------------------------
B------------------------------------------
G-----------------7b~------------------7---
D--4-----4---4----7b~----4-----4---4---7---
A--4-----4---4----5b~----4-----4---4---5---
E--2--0--2---2-----------2--0--2---2-------

E--------------------------------------------------------
B--------------------------------------------------------
G-2--2--2--2---------------------------------------------
D-2--2--2--2--2--2--2--2--4--4--4--4---4-4-4-4-4-4-4-4---
A-0--0--0--0--2--2--2--2--4--4--4--4---4-4-4-4-4-4-4-4---
E-------------0--0--0--0--2--2--2--2---2-0-2-0-2-0-2-0---

E---------------------------------------------------
B---------------------------------------------------
Gó2--2--2--2--------------------------2-2-2---------
Dó2--2--2--2--2--2--2--2--4-----4-----2-2-2--2--2---
A-0--0--0--0--2--2--2--2--4-----4-----0-0-0--2--2---
E-------------0--0--0--0--2--0--2------------0--0---

E---------------------------------------------------------
B--------------------------------------------------------
G--------------7-----9-----------------------
D--4-----4-----5-----9------------------------
A--4-----4-----5-----7------------------------
E--2--0--2------------------------------------------


OUTRO
E------------------------------------------------------------------------
B------------------------------------------------------------------------
G--------------2---2----------------------7----7----9----9-------UNTIL FADEOUT
D-----4---4----2---2---2---2----4---4-----7----7----9----9-------
A-----4---4----0---0---2---2----4---4-----5----5----7----7------
E-----2---2------------0---0----2---2------------------------------


Standard tuningÖ.you figure out the timing





Comments


Popular Osbourne Ozzy tabs & chords
Spiders In The Night 1 Bass Tabs
Believer Intro Tabs
Dee 1 Tabs
Denial Tabs
Dreamer (Solo Ver 3) Tabs
Iron Man/Children Of The Grave Tabs
Killer Of Giants 1 Tabs
Mama Im Coming Home (Solo Ver 3) Tabs
Secret Loser Tabs
Symptom Of The Univrse 1 Tabs


Song lyrics



↑ Back to top | Tablatures and chords are parodies/interpretations of the original songs. You may use it for private study, scholarship, research or language learning purposes only
© 2014 AZChords.com Contact us | Privacy policy | DMCA | Add/correct tabs | Request tabs | Top 50 tabs