» » »

Osbourne Ozzy, Dreamer Chords (ver.1)

Artists:  A B C D E F G H I J K L M N O P Q R S T U V W X Y Z # 

Dreamer Chords (ver.1)

Osbourne Ozzy Tabs
 Rating:
4/5 (4 votes)
Dreamer lessons Tabs too difficult? Try these video lessons and learn fast
                
note: tune to Eb(half-step down)

D                                 B
Gazing through the window at the world outside
D                             B
Wondering will mother earth survive
G                               E             A
Hoping that mankind will stop abusing her sometime

After all there's only just the two of us
And here we are still fighting for our lives
Watching all of history repeat itself
Time after time

           D
I'm just a dreamer
  B                F#   A
I dream my life away
           D
I'm just a dreamer
    B                  F#   A
Who dreams of better days

I watch the sun go down like everyone of us
I'm hoping that the dawn will bring a sign
A better place for those who will come after us 
This time

I'm just a dreamer
I dream my life away oh yeah
I'm just a dreamer
Who dreams of better days

     E                          A
Your higher power may be God or Jesus Christ
   E                             A
It doesn't really matter much to me
    E                                   A
Without each others help there ain't no hope for us
    E                         A
I'm living in a dream of fantasy

Oh yeah, yeah, yeah
   

Solo:(acoustic chords: D B  F# A)
eb|--------------------------|-------------------------|
Bb|--------------------------|------------------12-----|
Gb|-----7-9-11\-7-9----------|-----7-9-11-12-14----11--|
Db|--/9-------------9--------|--/9---------------------|
Ab|--------------------------|-------------------------|
Eb|--------------------------|-------------------------|

eb|--------12--14-15-17-19----|--12-----------------|
Bb|-----15-----------------19-|--15^--15^-15-12-----|
Gb|--14-----------------------|-----------------14--|
Db|---------------------------|---------------------|
Ab|---------------------------|---------------------|
Eb|---------------------------|---------------------|

eb|------------------------------------12-14-15~--|
Bb|---------------------------12-13-15------------|
Gb|-----------------11-12-14----------------------|
Db|-----------12-14-------------------------------|
Ab|--12-14-15-------------------------------------|
Eb|-----------------------------------------------|


If only we could all just find serenity
It would be nice if we could live as one
When will all this anger, hate and biggotry ... 
Be gone?

I'm just a dreamer
I dream my life away
Today
I'm just a dreamer
Who dreams of better days
Okay
I'm just a dreamer
Who's searching for the way
Today
I'm just a dreamer
Dreaming my life away
Oh yeah, yeah, yeah

end on D

Chords:
D:xx0232
B:x244xx
F#:244xxx
G:320033
E:0220xx
A:x0222x
            
Submit corrections

comments powered by Disqus
↑ Back to top | Osbourne Ozzy Chords for Dreamer. Lyrics for acoustic guitar and electric guitar. Tablatures and chords are parodies/interpretations of the original songs. You may use it for private study, scholarship, research or language learning purposes only