>
 >
Yelling In My Ear

Yelling In My Ear Bass Tabs

Operation Ivy - Yelling In My Ear chords, tabs, tablatures, lyrics

Guitar lessons | Add/correct | Request | Top 50 tabs Artists:  A B C D E F G H I J K L M N O P Q R S T U V W X Y Z 0-9

Yelling In My Ear Bass Tabs – Operation Ivy

CD, Sheet music, Poster

Do you like Yelling In My Ear? Share with your friends now
Bass TabsChordsTabsTabs v2Ukulele
Intro

G:|-------------------------|
D:|-------------------------|
A:|---------------------15/5| (Pick while sliding)
E:|-3-----3-----3-----3-----|

Verse

G:|--------------------------------------|
D:|-------2---2-----474-5----------------|
A:|---2-5---3---3-5-------5---2-3-2-5320-|
E:|-3-----------------------3------------|

G:----------------------------------|
D:-------2---2-----474-5------------|
A:---2-5---3---3-5-------5---2-3--5-|
E:-3-----------------------3--------|

Chorus

G:|-----------5--320-----|
D:|-55-33-22-0------3203-|x3
A:|----------------------|
E:|----------------------|

Then on last time of chorus

G:|------------------|
D:|------------------|
A:|---------33335555-|
E:|-33333333---------|

After Chorus:

G:|------------------|
D:|------------------|
A:|---------33335555-|x3
E:|-33333333---------|

G:|-----------------|
D:|-----------------|
A:|---------3-3-5-5-|
E:|-33333333--------|

Verse
Chorus

Guitar Solo

G:|-------------------------|
D:|-------------00----------|
A:|-33-11-00-------33-22-00-|
E:|----------33-------------|

G:-------------------------|
D:----------22-33-22-------|
A:----22-55----------55-22-|
E:-33----------------------|

G:-------------------------|
D:-------------00----------|
A:-33-11-00-------33-22-00-|
E:----------33-------------|

G:--------------------------|
D:----------------22-33-44-5|
A:----22-33-44-55-----------|
E:-33-----------------------|

Intro

Outro

G:|-----------------------------5--320---------------5--320-----|
D:|-------------------55-33-22-0------3203-55-33-22-0------3203-|
A:|---------333355555-------------------------------------------|
E:|-33333333----------------------------------------------------|

G-------------------|
D-------------------|
A--------33335555---|
E33333333--------3--|

Song order

Intro
Verse
Chorus
After Chorus
Verse
Chorus
Guitar Solo
Chorus





Comments


Popular Operation Ivy tabs & chords
Bad Town 2 Bass Tabs
Knowledge 1 Bass Tabs
Sound System Bass Tabs
Uncertain 3 Bass Tabs
Healthy Mind Chords
Bombshell 1 Tabs
I Got No 1 Tabs
Take Warning 2 Tabs
Unitiy Tabs
Here We Go Again Ukulele


Song lyrics



↑ Back to top | Tablatures and chords are parodies/interpretations of the original songs. You may use it for private study, scholarship, research or language learning purposes only
© 2014 AZChords.com Contact us | Privacy policy | DMCA | Add/correct tabs | Request tabs | Top 50 tabs