» » »

Operation Ivy, Yelling In My Ear Tabs (ver.1)

Artists:  A B C D E F G H I J K L M N O P Q R S T U V W X Y Z # 

Yelling In My Ear Tabs (ver.1)

Operation Ivy Tabs
 Rating:
4/5 (4 votes)
Yelling In My Ear lessons Tabs too difficult? Try these video lessons and learn fast
1
                This tab is a little better than others because all 
of the others don't have enough strums in them. This 
is a great song so i decided to sit here and tab it
for you all...

Intro:

e/---------------------------
b/---------------------------
g/---------------------------
d/------3-3-2-2--------------
a/---2-2------------2-2---4-4
e/3-3-----------3--3---5-5--- x3 then do this:

Verse:

e/2-2-2-2-4-4-6--6
b/2-2-2-2-4-4-6--6
g/3-3-3-3-5-5-7--7
d/----------------
a/----------------
e/---------------- x3 then do this:

Chorus:

e/------------------
b/------------------
g/---------5555-7777
d/55555555-5555-7777
a/55555555-3333-5555
e/33333333---------- x4

Find the solo somewhere but here is the order:

intro
verse
chorus
intro
verse
chorus
solo
intro(palm muted on first part)
chorus
            
Submit corrections

comments powered by Disqus
↑ Back to top | Operation Ivy Tabs for Yelling In My Ear. Lyrics for acoustic guitar and electric guitar. 1 Tablatures and chords are parodies/interpretations of the original songs. You may use it for private study, scholarship, research or language learning purposes only