» » »

Hedgecore Bass tabs (ver.1)

Artists:  A B C D E F G H I J K L M N O P Q R S T U V W X Y Z # 

Hedgecore Bass tabs (ver.1)

Operation Ivy
Rating:
2/5 (1 vote)

Hard to play? Try these video lessons and learn fast.
                A: (4x)
           
G---------------------------
D---------------------------
A---------55555555----------
E-55-55555------------------

B:

G-----------------------------------
D-------4---4-5-6-7-5-4-------------
A---4-7---5-------------7-5-7-5-4---
E-5---------------------------------

G-------------------4-5-6-7-5-4-----
D-------4---4-5-6-7-------------7---
A---4-7---5-------------------------
E-5---------------------------------

C:

G--------------45-------------------
D------45---4-7--------45-----------
A---4-7---5---------4-7-------------
E-5---------------5-------5---------

D:

G-----------------------------------
D-----------------------------------
A---------5-3-2-0-------------------
E-5-3-2-0---------5-3-2-0-55555555--

E:

G-----------------------------------
D-----------------------------------
A-----------------------------------
E-5--------------------------------



A 4x
B 
A 4X
B
A 4x
C
D
E 4x
A 2x
            
Hard to play? Try these video lessons and learn fast. | Correct




comments powered by Disqus
↑ Back to top | Tablatures and chords are parodies/interpretations of the original songs. You may use it for private study, scholarship, research or language learning purposes only