>
 >
Hedgecore

Hedgecore Guitar Tabs

Operation Ivy - Hedgecore chords, tabs, tablatures, lyrics

Guitar lessons | Add/correct | Request | Top 50 tabs Artists:  A B C D E F G H I J K L M N O P Q R S T U V W X Y Z 0-9

Hedgecore Guitar Tabs – Operation Ivy

CD, Sheet music, Poster

Do you like Hedgecore? Share with your friends now
Bass TabsBass Tabs v2ChordsTabsTabs v2Ukulele
Band: Operation Ivy
Tuning: Standart E A D G B E

Yeah.. that's a really skanky song with a bit of hardcore in it.
The Song basically need just 3 Chords for the whole song. Well, it was a bit
hard to tab the shit out 'cause there's no real recorded version of Hedgecore
only live versions on several Albums like '69 Newport or Seedy (1996)
So I just made the tabs for the more or less 'clean' version on the 69' Newport EP...

Chords
 | Verse | Chorus      |
 |       |   A    D    |
e|---5---|-------------|
B|---6---|-------------|
G|---7---|--------7----|
D|---7---|---7----7----|
A|---5---|---7----5----|
E|-------|---5---------|

Intro - Kay, so at the beginning you play a very fast ska-rhythm for 4 times...
Ska-Rhythm: muted death notes (x) are played downstroke and the chords upstroke
After it you switch to the powerchords and play them 4 times too...
 |                4x  |                4x  |
e|---x5x5x5x5-x5x555--|--------------------|
B|---x6x6x6x6-x6x666--|--------------------|
G|---x7x7x7x7-x7x777--|-----------7777777--|
D|---x7x7x7x7-x7x777--|---7777777-7777777--|
A|---x5x5x5x5-x5x555--|---7777777-5555555--|
E|--------------------|---5555555----------|

Verse - Do nothin' more than play the ska-rhythm through the whole song...
Do this hard but especially very fast!
 |   Verse                                 |
e|---x5x5x5x5x5x5x5x5x5x5x5x5x5x5x5x5...---|
B|---x6x6x6x6x6x6x6x6x6x6x6x6x6x6x6x6...---|
G|---x7x7x7x7x7x7x7x7x7x7x7x7x7x7x7x7...---|
D|---x7x7x7x7x7x7x7x7x7x7x7x7x7x7x7x7...---|
A|---x5x5x5x5x5x5x5x5x5x5x5x5x5x5x5x5...---|
E|-----------------------------------------|

Chorus - The chorus is quiet simple kinda like the second part of the intro...
 |          3x  |                      1x  |
e|--------------|--------------------------|
B|--------------|--------------------------|
G|----------77--|----------777777----------|
D|---777777-77--|---777777-777777----------|
A|---777777-55--|---777777-555555----------|
E|---555555-----|---555555-----------------|

Break - During the break after the second chorus you just play the skanky rhythm along...
 |                                  2x     |
e|---x5x5x5x5x5x5x5x5x5x5x5x5x5x5x5x55-----|
B|---x6x6x6x6x6x6x6x6x6x6x6x6x6x6x6x66-----|
G|---x7x7x7x7x7x7x7x7x7x7x7x7x7x7x7x77-----|
D|---x7x7x7x7x7x7x7x7x7x7x7x7x7x7x7x77-----|
A|---x5x5x5x5x5x5x5x5x5x5x5x5x5x5x5x55-----|
E|-----------------------------------------|

#3Verse - The third verse is a bit different than the other two...
You play the three verses regular with the ska-rhytm and at the last verse
("Annihilating shrubs is what we enjoy") you stop and let the sound fade.
A moment later you just play the chord three times and kick in the chorus...
 | Verse  |annihilating shrubs is....      |
e|---...x5x5~~-----555---------------------|
B|---...x6x6~~-----666---------------------|
G|---...x7x7~~-----777---------------------|
D|---...x7x7~~-----777---------------------|
A|---...x5x5~~-----555---------------------|
E|-----------------------------------------|

Order: Intro - Verse - Chorus - Verse - Chorus - Break - Verse - 2xChorus

Yeah.. that's it! The song's just simply awesome! I hope you enjoy to play it...
I just have one thing to say: Play the song hard and fast! Just like Timmy ;)
Just too bad that Hedgecore wasn't released as a record on the Energy LP...

If you have any questions or just wanna talk about how awesome Op Ivy is:





Comments


Popular Operation Ivy tabs & chords
6 To Bass Tabs
6 To Ten Bass Tabs
Plea For Peace 1 Bass Tabs
Knowledge Chords
Here We Go Again Tabs
Jaded 2 Tabs
Junkie's Runnin' Dry Tabs
Knowledge Tabs
Knowledge 1 Tabs
The Crowd 1 Tabs


Song lyrics



↑ Back to top | Tablatures and chords are parodies/interpretations of the original songs. You may use it for private study, scholarship, research or language learning purposes only
© 2014 AZChords.com Contact us | Privacy policy | DMCA | Add/correct tabs | Request tabs | Top 50 tabs