» » »

Bad Town Bass tabs (ver.1)

Artists:  A B C D E F G H I J K L M N O P Q R S T U V W X Y Z # 

Bad Town Bass tabs (ver.1)

Operation Ivy
Rating:
2/5 (3 votes)

Hard to play? Try these video lessons and learn fast.
                Bassist: Matt Freeman

Verse:
G|--------------------------3--3--3-----2----0--------|
D|---3------------------------------------------------|
A|----------------------------------------------------|
E|----------------------------------------------------|

G|----------------------------------------------------|
D|----------------------------------------------------|
A|---3-----------------3--3--3-----1-----0------------|
E|----------------------------------------------------|

Chorus:
G|-----------------------------0--2--0----------------|
D|------3--3------1---3-----3-----------3---0---------|
A|-1-------------------------------------------3------|
E|----------------------------------------------------|

G|----0----2------0---2--3--2--0----------------------|
D|-------------3-------------------3---0--------------|
A|----------------------------------------------------|
E|----------------------------------------------------|

G|----5--5--3--3--2--2--0--0--------------------------|
D|----------------------------------------------------|
A|-~3-------------------------------------------------|
E|----------------------------------------------------|

This last bit of the chorus is played at the ending of every chorus in the song
            
Hard to play? Try these video lessons and learn fast. | Correct




comments powered by Disqus
↑ Back to top | Tablatures and chords are parodies/interpretations of the original songs. You may use it for private study, scholarship, research or language learning purposes only