» » »

Bad Town Tabs (ver.1)

Artists:  A B C D E F G H I J K L M N O P Q R S T U V W X Y Z # 

Bad Town Tabs (ver.1)

Operation Ivy
Rating:
3/5 (4 votes)

Hard to play? Try these video lessons and learn fast.
                ----------------------------------------------------------------------------
-----------------------------------------------------------------------------

This is a correction on Bad Town I messed up the main riff by putting all the notes one 
to high oops. and Ive also added the little mandolin sounding solo bit that happens 
now and then in the verses

Tuning:EADGBe

Main Riff/Verse Riff

e|--------------------------------------------------------------------------|
B|-6-6-6-6------------------------------------------------------------------|
G|-5-5-5-5-3-5-5-5-5--------------------------------------------------------|
D|-3-3-3-3-3-5-5-5-5--------------------------------------------------------|
A|-3-3-3-3-3-3-3-3-3--------------------------------------------------------|
E|--------------------------------------------------------------------------|

Chorus Riff

...No More, Bad Town...
e|--------------------------------------------------------------------------|
B|-3-3333--------5-5555-----------------------------------------------------|
G|-3-3333-2-2222-5-5555-2-2222----------------------------------------------|
D|-3-3333-3-3333-5-5555-3-3333----------------------------------------------|
A|-1-1111-3-3333-3-3333-3-3333----------------------------------------------|
E|--------1-1111--------1-1111----------------------------------------------|

On the last bar of the choruses play

...Yeaah...
e|--------------------------------------------------------------------------|
B|--5~----------------------------------------------------------------------|
G|--5~----------------------------------------------------------------------|
D|--5~----------------------------------------------------------------------|
A|--3~----------------------------------------------------------------------|
E|--------------------------------------------------------------------------|

Verse Solo bit (just play this after after a bar every now and then)
e|---------------------------------------------------------------------------------|
B|---8-88-6-5----------------------------------------------------------------------|
G|---------------------------------------------------------------------------------|
D|---------------------------------------------------------------------------------|
A|---------------------------------------------------------------------------------|
E|---------------------------------------------------------------------------------|

*Order*
Intro (Saxophone) 2x
Main Riff 4x
Verse 4x
Chorus 2x
Verse 4x
Chorus 2x
Main Riff 4x
Chorus 6x
End

I'm pretty this version is correct but if made any more mistakes please give me an email 
Ill fix it up. Op Ivy Forever
            
Hard to play? Try these video lessons and learn fast. | Correct




comments powered by Disqus
↑ Back to top | Tablatures and chords are parodies/interpretations of the original songs. You may use it for private study, scholarship, research or language learning purposes only