» » »

Onesidezero, Shed The Skin Tabs (ver.3)

Artists:  A B C D E F G H I J K L M N O P Q R S T U V W X Y Z # 

Shed The Skin Tabs (ver.3)

Onesidezero Tabs
Rating:
0/5 (0 votes)
Hard to play? Try these video lessons and learn fast.
                Tuning: Drop D

Legend
/=Slide
x=Scratch
h=Hammer On

Intro
E-------------------------------
B-------------------------------
G-------------------------------
D--0-0-x-2-x-2h3-0-x-2-x--------
A--0-0-x-2-x-2h3-0-x-2-x--------
D--0-0-x-2-x-2h3-0-x-2-x--------

Verse
E-----------8--12----------8-12----------8-12----17-12-8-12-8-7----------------
B--/10-10----------9h10---------9h10-------------------------------------------
G------------------------------------------------------------------------------
D------------------------------------------------------------------------------
A------------------------------------------------------------------------------
D------------------------------------------------------------------------------

Riff 1 (Listen to the song to get the exact timing and how long you’re supposed to 
play  each chord.)
E----------------------------------------
B----------------------------------------
G--999999999-7/99999-10-10-10-10-10------
D--xxxxxxxxx-x/xxxxx-x--x--x--x--x-------
A--777777777-5/77777-8--8--8--8--8-------
D----------------------------------------

E---------------------------------------------
B---------------------------------------------
G--14-14-14-14--17-17-16-16-14-14-13-13-10----
D--x--x--x--x---x--x--x--x--x--x--x--x--x-----
A--12-12-12-12--15-15-14-14-12-12-11-11-8-----
D---------------------------------------------

Riff 2
E---------------------------------------
B---------------------------------------
G---------------------------------------
D--777777777777777--222222-33333--------
A--777777777777777--222222-33333--------
D--777777777777777--222222-33333--------

Verse 2
E-----------8--12----------8-12----------8-12----15b----------------------
B--/10-10----------9h10---------9h10-----------------12b-12-15-13-12-13---
G-------------------------------------------------------------------------
D-------------------------------------------------------------------------
A-------------------------------------------------------------------------
D-------------------------------------------------------------------------

Outro
E--------------------------------
B--------------------------------
G--------------------------------
D--0-0-x-0-x--00-x-0-x-----------
A--0-0-x-0-x--00-x-0-x-----------
D--0-0-x-0-x--00-x-0-x-----------
            

comments powered by Disqus
↑ Back to top | Onesidezero Tabs for Shed The Skin. Lyrics for acoustic guitar and electric guitar. Tablatures and chords are parodies/interpretations of the original songs. You may use it for private study, scholarship, research or language learning purposes only