» » »

Onesidezero, Shed The Skin Tabs (ver.1)

Artists:  A B C D E F G H I J K L M N O P Q R S T U V W X Y Z # 

Shed The Skin Tabs (ver.1)

Onesidezero Tabs
 Rating:
4.3/5 (6 votes)
Shed The Skin lessons Tabs too difficult? Try these video lessons and learn fast
                Artist- Onesidezero
Song- Shed the skin

Intro/Bridge
e|--------------------------------|
b|--------------------------------|
g|--------------------------------|
d|-0-0-2-2s3-0-2------------------|
a|-0-0-2-2s3-0-2------------------|
D|-0-0-2-2s3-0-2------------------|

Verse
e|-------12----------12----------12-17-12----12---------|
b|----13----------13----------13----------13----13-12---|
g|-14-------14-13-------13-14---------------------------|
d|------------------------------------------------------|
a|------------------------------------------------------|
D|------------------------------------------------------|

Chorus (no strumming shown)
e|----------------------------------|
b|----------------------------------|
g|-9-9b-10-14-16-17-16-14-13-10-----|
d|-x-x---x--x--x--x--x--x--x--x-----|
a|-7-7b--8-12-14-15-14-12-11--8-----|
D|----------------------------------|

Fill at end of 2nd verse
e|-15h17p15-------------------------|
b|----------12h13p12-13-15-13-12-13-|
g|----------------------------------|
d|----------------------------------|
a|----------------------------------|
D|----------------------------------|

During bridge, these 2 notes are played a few seconds apart

e|----------------------------------|
b|----------------------------------|
g|-----11b11------------------------|
d|----------------------------------|
a|-12b------------------------------|
D|----------------------------------|

I dunno what i should do next....any suggestions?
            
Submit corrections

comments powered by Disqus
↑ Back to top | Onesidezero Tabs for Shed The Skin. Lyrics for acoustic guitar and electric guitar. Tablatures and chords are parodies/interpretations of the original songs. You may use it for private study, scholarship, research or language learning purposes only