>
 >
Shed The Skin 1

Shed The Skin 1 Guitar Tabs

Onesidezero - Shed The Skin 1 chords, tabs, tablatures, lyrics

Guitar lessons | Add/correct | Request | Top 50 tabs Artists:  A B C D E F G H I J K L M N O P Q R S T U V W X Y Z 0-9

Shed The Skin 1 Guitar Tabs – Onesidezero

CD, Sheet music, Poster

Do you like Shed The Skin 1? Share with your friends now
TabsTabs v2Tabs v3
Drop D

s=Slide
x=Scratch
h=Hammer On

E-------------------------------
B-------------------------------
G-------------------------------
D--0-0-x-2-x-2h3-0-x-2-x--------
A--0-0-x-2-x-2h3-0-x-2-x--------
D--0-0-x-2-x-2h3-0-x-2-x--------

E-----------8--12----------8-12----------8-12----17-12-8-12-8-7----------------
B--s10-10----------10s9---------9s10-------------------------------------------
G------------------------------------------------------------------------------
D------------------------------------------------------------------------------
A------------------------------------------------------------------------------
D------------------------------------------------------------------------------

Chorus: Played in Triplet form
E----------------------------------------
B----------------------------------------
G--999999999-7s99999-10-10-10-12-12-12-12
D--xxxxxxxxx-xsxxxxx-x--x--x--x--x--x--x-
A--777777777-5s77777-8--8--8--10-10-10-10
D----------------------------------------

E---------------------------------------------
B---------------------------------------------
G--14-14-14-14--------------------------------
D--x--x--x--x-(stay on this for a while)------
A--12-12-12-12--------------------------------
D---------------------------------------------

E------------------------------------------------
B------------------------------------------------
G-17-17-17-16-16-16-14-14-16-16-16-14-14-14-12-12
D-x--x--x--x--x--x--x--x--x--x--x--x--x--x--x--x-
A-15-15-15-14-14-14-12-12-14-14-14-12-12-12-10-10
D------------------------------------------------

this goes along with the "forcing us down into" line

E---------------------------------------
B---------------------------------------
G---------------------------------------
D--777777777777777--222222-33333--------
A--777777777777777--222222-33333--------
D--777777777777777--222222-33333--------

"you wrote the words.."

E-----------8--12----------8-12----------8-12----15b----------------------------
B--s10-10----------10s9---------9s10-----------------12b-12-15-12-13-12-15-13-12
G-------------------------------------------------------------------------------
D-------------------------------------------------------------------------------
A-------------------------------------------------------------------------------
D-------------------------------------------------------------------------------

Bridge: The part before the "we've done it this time" part. 
Obviously the main riff, it's just cut off at the end

the octave sequence is then played 3 times in the next chorus, 
then procedes down to the heavy chords.. then..

E--------------------------------
B--------------------------------
G--------------------------------
D--0-0-x-0-x--00-x-0-x-----------
A--0-0-x-0-x--00-x-0-x-----------
D--0-0-x-0-x--00-x-0-x-----------

repeat 4 times

then a fill is chucked in

E-----------------
B-----------------
G-----------------
D-5-3-2-----------
A-5-3-2-----------
D-5-3-2-----------

repeat outro a further 4 times and youre done





Comments


Popular Onesidezero tabs & chords
Awake Tabs
Eight Tabs
Eight 2 Tabs
Run Around Tabs
Shed The Skin Tabs
Shed The Skin 2 Tabs
Sleep Through This Tabs
Summertime Tabs
Underground Tabs
Underground 1 Tabs


Song lyrics



↑ Back to top | Tablatures and chords are parodies/interpretations of the original songs. You may use it for private study, scholarship, research or language learning purposes only
© 2014 AZChords.com Contact us | Privacy policy | DMCA | Add/correct tabs | Request tabs | Top 50 tabs