» » »

One Minute Silence, Rise And Shine Tabs (ver.3)

Artists:  A B C D E F G H I J K L M N O P Q R S T U V W X Y Z # 

Rise And Shine Tabs (ver.3)

One Minute Silence Tabs
Rating:
0/5 (0 votes)
Rise And Shine lessons Tabs too difficult? Try these video lessons and learn fast
                Ok guys,

There seems to be quite a bit of confusion over the interlude part of this song.  Here's how to get that full sound that everyone's been talking about.  It may take a little practice to get some of the notes cleanly, but let each measure ring through and it'll sound exactly like it did on the album



--------------------------------|--------------------------------|-----------
--------------------------------|--------------------------------|-----------
----3-----2-----0---------------|----3-----2-----0---------------|----3-----2
----------------------3-----3h5-|----------------------3-----3h5-|-----------
-5-----5-----5-----5-----5------|-3-----3-----3-----3-----3------|-1-----1---
--------------------------------|--------------------------------|-----------
                                                      


---------------------|-------------------------------|
---------------------|-------------------------------|
-----0---------------|----2-----0-----3-----2-----0h2|
-----------3-----3h5-|-------------------------------|
--1-----1-----1------|-3-----3-----3-----3-----3-----|
---------------------|-------------------------------|
            
Submit corrections

comments powered by Disqus
↑ Back to top | One Minute Silence Tabs for Rise And Shine. Lyrics for acoustic guitar and electric guitar. Tablatures and chords are parodies/interpretations of the original songs. You may use it for private study, scholarship, research or language learning purposes only