» » »

One Minute Silence, Rise And Shine Tabs (ver.2)

Artists:  A B C D E F G H I J K L M N O P Q R S T U V W X Y Z # 

Rise And Shine Tabs (ver.2)

One Minute Silence Tabs
4/5 (4 votes)
Rise And Shine lessons Tabs too difficult? Try these video lessons and learn fast
                Tuning: Drop D

I saw OMS on the 22nd of January and noticed Massy playing the main Rise and Shine riff differently to how I play it so I thought feck that and wrote this tab.

Main Riff

e ---------------------|----------------------|
B ---------------------|----------------------|
G ---------------------|----------------------|
D ---------------------|----------------------|
A 0--12h13-13-12-10-12-|-12h13-13-12-11-11s15-|
D 0--------------------|----------------------|


e -----------------------------|
B -----------------------------|
G -----------------------------|
D -----------------------------|
A 00-0--5h6--00-0--5h6--00--4--|
D 00-0-------00-0-------00-----|
  .. .       .. .       ..


e --------------|-------------------|
B --------------|-------------------|
G --------------|-------------------|
D --------------|-------------------|
A 12-10-8-6-6h8-|-12-10-13-10-10h12-|
D --------------|-------------------|

e ------------------------|
B ------------------------|
G ------------------------|
D ------------------------|
A -----3h4-----3h4----3h4-|
D 00-0-----00-0----00-----|
  .. .     .. .    ..

It sounds right to me, I hope you like it, any corrections are welcome.

- Jaytrixer
Submit corrections

comments powered by Disqus
↑ Back to top | One Minute Silence Tabs for Rise And Shine. Lyrics for acoustic guitar and electric guitar. Tablatures and chords are parodies/interpretations of the original songs. You may use it for private study, scholarship, research or language learning purposes only