» » »

One Minute Silence, Rise And Shine Tabs (ver.1)

Artists:  A B C D E F G H I J K L M N O P Q R S T U V W X Y Z # 

Rise And Shine Tabs (ver.1)

One Minute Silence Tabs
Rating:
0/5 (0 votes)
Hard to play? Try these video lessons and learn fast.
                One Minute Silence.
Rise and Shine.

This has to probably be my favourite OMS track. It sums them up perfectly.
AS an opener it is an amazing track (trust me I've tried it). I think Massy
Plays it differently to me. He still uses the same notes but I think when I
saw them at Nottingham he played lower on the G instead of higher on the D.
I find the D string easier but it's all personal preference. The middle was 
a b**ch to figure out but I got there in the end. Enjoy, Ren.


Rhythm Fig 1.
E-----------------|-----------------|-----------------|-----------------|
B-----------------|-----------------|-----------------|-----------------|
G-----(h)-----(h)-|---(h)-----(h)---|---(h)-----(h)---|---(h)-----(h)---|
D---7-8-8-7-5-7---|---7-8-8-7-5-7---|---7-8-8-7-5-7---|---7-8-8-7-5-7-8-|
A-0---------------|-0---------------|-0---------------|-0---------------|
D-0---------------|-0---------------|-0---------------|-0---------------|
 
E-----------------|-----------------|-----------------|-----------------|
B-----------------|-----------------|-----------------|-----------------|
G---(h)-----(h)---|---(h)-----(h)---|---(h)-----(h)---|---(h)-----(h)sl-|
D---7-8-8-7-5-7---|---7-8-8-7-5-7---|---7-8-8-7-5-7---|---7-8-8-7-5-7-12|
A-0---------------|-0---------------|-0---------------|-0---------------|
D-0---------------|-0---------------|-0---------------|-0---------------|


Rhythm Fig 2. (Can't tell which rhythm is the verse and which is the chorus)
E---------------------------|
B---------------------------|
G---------------------------|
D---------------------------|
A--PM----sl---PM---sl--PM---|
D-00-0-10-12-0-0-10-12-00-10|

This one was the b**ch to figure out. It sounds cool though so it had to
be done.

Rhythm Fig 3 (solo) 
E-----------------|-----------------|-----------------|-----------------|
B-----------------|-----------------|-----------------|-----------------|
G---------(h)-----|---------(h)-----|---------(h)-----|---------(h)-----|
D-8-7-5-3-3-5-----|-8-7-5-3-3-5-----|-8-7-5-3-3-5-----|-7-5-8-7-5-7-----|
A-----------------|-----------------|-----------------|-----------------|
D-----------------|-----------------|-----------------|-----------------|

That should be all the riffs you need for this song. Like all the OMS songs
i've tabbed it may not be 100% right because I figured it out by ear. I
don't claim to be a genius anyway so who cares. It's close enough for a 
rampaging herd of rabid wombats and its enough to impress your mates. Theres
The riffs for ya, just listen to the cd and play along to figure out the
rhythm and timings. I'll also chuck the lyrics in for ya. Stay Insane, Ren.
            

comments powered by Disqus
↑ Back to top | One Minute Silence Tabs for Rise And Shine. Lyrics for acoustic guitar and electric guitar. Tablatures and chords are parodies/interpretations of the original songs. You may use it for private study, scholarship, research or language learning purposes only