» » »

Old 97s, Question Tabs (ver.3)

Artists:  A B C D E F G H I J K L M N O P Q R S T U V W X Y Z # 

Question Tabs (ver.3)

Old 97s Tabs
 Rating:
4.4/5 (7 votes)
Question lessons Tabs too difficult? Try these video lessons and learn fast
1
                -------------------------------------------------------------------------------
                             QUESTION – Old 97's
-------------------------------------------------------------------------------

Tuning:  Tune down a full step, chords are relative to tuning

Intro:  D – D/C# - D/B – (bass walk) – G – G/F# - Em7 – (bass walk)

        (I didn't tab out the strumming, you get the idea)

d|---2-----2-----2------------------3-----3-----3------------------------------|
A|---3-----3-----3------------------3-----3-----3------------------------------|
F|---2-----2-----2------------------0-----0-----0------------------------------|
C|-0-0-----x-----x------------------0-----0-----2------------------------------|
G|-------4-4---2-2---0--0--2--0-----2-----x-----2---0--0--2--4-----------------|
D|--------------------------------3-3---2-2---0-0------------------------------|


1st Verse:  D – D/C# - D/B – D/A – G – G/F# - Em7 – (bass walk)

d|---2-----2-----2-----2-----3-----3-----3-------------------------------------|
A|---3-----3-----3-----3-----3-----3-----3-------------------------------------|
F|---2-----2-----2-----2-----0-----0-----0-------------------------------------|
C|-0-0-----x-----x-----0-----0-----0-----2-------------------------------------|
G|-------4-4---2-2---0-0-----2-----x-----2---0--0--2--4------------------------|
D|-------------------------3-3---2-2---0-0-------------------------------------|

2nd Verse:  D – D/C# - D/B – D/A – G – G/F# - Em7 – (bass walk)

d|---2-----2-----2-----2-----3-----3-----3-------------------------------------|
A|---3-----3-----3-----3-----3-----3-----3-------------------------------------|
F|---2-----2-----2-----2-----0-----0-----0-------------------------------------|
C|-0-0-----x-----x-----0-----0-----0-----2-------------------------------------|
G|-------4-4---2-2---0-0-----2-----x-----2---0--0--2--0------------------------|
D|-------------------------3-3---2-2---0-0-------------------------------------|

1st Chorus:  G – A – D – C
	             G – A – D – C
             G – Bm – G – (bass walk)

d|-3---0---2---0---3---0---2---0---3---2---3---------------------------------|
A|-3---2---3---1---3---2---3---1---3---3---3---------------------------------|
F|-0---2---2---0---0---2---2---0---0---4---0---------------------------------|
C|-0---2---0---2---0---2---0---2---0---4---0---------------------------------|
G|-2---0-------3---2---0-------3---2---2---2---0--0--2--4--------------------|
D|-3---------------3---------------3-------3---------------------------------|


Repeat Intro


3rd and 4th verses are the same as the 1st and 2nd, respectively


2nd Chorus:  G – A – D – C
	             G – A – D – C
             G – Bm – G – (bass walk)

d|-3---0---2---0----------3---0---2---0---3---2---3--------------------------|
A|-3---2---3---1----------3---2---3---1---3---3---3--------------------------|
F|-0---2---2---0-------0--0---2---2---0---0---4---0--------------------------|
C|-0---2---0---2--0h2-----0---2---0---2---0---4---0--------------------------|
G|-2---0-------3----------2---0-------3---2---2---2---0--0--2--4-------------|
D|-3----------------------3---------------3-------3--------------------------|

Outro:  D – D/C# - D/B – D/A – G – A
        D – D/C# - D/B – D/A – G – A – D

d|---2-----2-----2-----2-----3-----0-------------------------------------------|
A|---3-----3-----3-----3-----3-----2-------------------------------------------|
F|---2-----2-----2-----2-----0-----2-------------------------------------------|
C|-0-0-----x-----x-----0-----0-----2-------------------------------------------|
G|-------4-4---2-2---0-0-----2---0-0-------------------------------------------|
D|-------------------------3-3-------------------------------------------------|

d|---2-----2-----2-----2-----3----0--0---2-------------------------------------|
A|---3-----3-----3-----3-----3----2--2---3-------------------------------------|
F|---2-----2-----2-----2-----0----2--2---2-------------------------------------|
C|-0-0-----x-----x-----0-----0----2--2---0-------------------------------------|
G|-------4-4---2-2---0-0-----2----0--0-----------------------------------------|
D|-------------------------3-3-------------------------------------------------|


| /  slide up
| \  slide down
| h  hammer-on
| p  pull-off
| ~  vibrato
| +  harmonic
| x  Mute note
            
Submit corrections

comments powered by Disqus
↑ Back to top | Old 97s Tabs for Question. Lyrics for acoustic guitar and electric guitar. 1 Tablatures and chords are parodies/interpretations of the original songs. You may use it for private study, scholarship, research or language learning purposes only