» » »

Old 97s, Question Tabs (ver.1)

Artists:  A B C D E F G H I J K L M N O P Q R S T U V W X Y Z # 

Question Tabs (ver.1)

Old 97s Tabs
 Rating:
4.2/5 (5 votes)
Question lessons Tabs too difficult? Try these video lessons and learn fast
                Tuning: Standard

Intro/Verse
       C     Cmaj7    Am     G(verse)     F      F\E     Dm
e|-----0-------0-------0------------------1-------1-------1-----------------|
B|-----1-------1-------1------------------1-------1-------3-----------------|
G|-----0-------0-------2------------------2-------2-------2-----------------|
D|-----2-------0-------2------------------3-------3----0--0-----------------|
A|--3--3----2--2----0--0---------0--------3-------3-------0----------0--2---|
E|---------------------------3-3---3---1--1----0--0------------3--3---------|


C      Cmaj7            Am
She woke her from a dream
G                F
Her head was on fire
F/E              Dm
Why was he so nervous?

C      Cmaj7            Am
He took her to the park
G                 F
She crossed her arms
F/E               Dm
And lowered her eyelids

Chorus:
e|-------------------|
B|-------------------|
G|-------------------|
D|-------------------|
A|--------0----------|
E|--3--3-----3-------|

       F       G        C        Bb
e|-----1-------3--------0--------1---------------------------------------------|
B|-----1-------3--------1--------3---------------------------------------------|
G|-----2-------0--------0--------3---------------------------------------------|
D|-----3-------0--------2--------3---------------------------------------------|
A|-----3-------2-----3--3-----1--1----1h3h5------------------------------------|
E|--1--1----3--3---------------------------------------------------------------|

 F           G             C         Bb
Some day somebody's gonna ask you
F           G                   C      Bb
A question that you should say yes to
Bb             F
once in your life
Am           F               G
Maybe tonight I've got a question for you


C  Cmaj7  Am  F  F/E  Dm


 C    Cmaj7     Am
She'd had no idea
G               F
She started to cry
F/E            Dm
She said in a good way

C      Cmaj7          Am
He took her by the hand
G                 F
Walked her back home
F/E            Dm
They took the long way

 F           G             C         Bb
Some day somebody's gonna ask you
F           G                   C      Bb
A question that you should say yes to
Bb             F
once in your life
Am           F               G
Baby tonight I've got a question for you

C  Cmaj7  Am  G

F               G
I've got a question for you

C  Cmaj7  Am  G F  F/E  C (strum last c slowly once)
            
Submit corrections

comments powered by Disqus
↑ Back to top | Old 97s Tabs for Question. Lyrics for acoustic guitar and electric guitar. Tablatures and chords are parodies/interpretations of the original songs. You may use it for private study, scholarship, research or language learning purposes only