» » »

Question Tabs (ver.2)

Artists:  A B C D E F G H I J K L M N O P Q R S T U V W X Y Z # 

Question Tabs (ver.2)

Old 97s
Rating:
5/5 (12 votes)

Tabs too difficult? Try these video lessons and learn fast.
                
                                    QUESTION
                             As recorded by Old 97's
                      (From the 2001 Album SATELLITE RIDES)


           D                  D/C#                  D/B                   G
      x x 0 2 3 2          x 4 x 2 3 2          x 2 x 2 3 2          3 2 0 0 3 3

           A                Dadd11/F#               Em7                 Cadd9
      x 0 2 2 2 0          2 0 0 0 3 3          0 2 2 0 3 3          x 3 2 0 3 3

          Bm
      x 2 4 4 3 2


Tablature Legend
----------------
 h   - hammer-on
 p   - pull-off


Tuning: D G C F A D 

 Intro
  D               D/C#              D/B             D
 4/4

D|---2-2-(2)-2-2-2---2-2-(2)-2-2-2-|---2-2-(2)-2-2-2---2-2-----|
A|---3-3-(3)-3-3-3---3-3-(3)-3-3-3-|---3-3-(3)-3-3-3---3-3-----|
F|---2-2-(2)-2-2-2---2-2-(2)-2-2-2-|---2-2-(2)-2-2-2---2-2-----|
C|-0-------------------------------|---------------------------|
G|-----------------4---------------|-2---------------0-----2-0-|
d|---------------------------------|---------------------------|


  G               Dadd11/F#         Em7
  
|---3-3-(3)-3-3-3---3-3-(3)-3-3-3-|---3-3-(3)-3-3-3---------|
|---3-3-(3)-3-3-3---3-3-(3)-3-3-3-|---3-3-(3)-3-3-3---------|
|---0-0-(0)-0-0-0---0-0-(0)-0-0-0-|---0-0-(0)-0-0-0---------|
|---------------------------------|-------------------------|
|---------------------------------|-2---------------0-0-2-4-|
|-3---------------2---------------|-0-----------------------|


 Verse
  D               D/C#              D/B             D
 She woke from a dream                              her head was on fire
|---2-2-(2)-2-2-2---2-2-(2)-2-2-2-|---2-2-(2)-2-2-2---2-2-(2)-2-2-2--|
|---3-3-(3)-3-3-3---3-3-(3)-3-3-3-|---3-3-(3)-3-3-3---3-3-(3)-3-3-3--|
|---2-2-(2)-2-2-2---2-2-(2)-2-2-2-|---2-2-(2)-2-2-2---2-2-(2)-2-2-2--|
|-0-------------------------------|----------------------------------|
|-----------------4---------------|-2---------------0----------------|
|---------------------------------|----------------------------------|


  G               Dadd11/F#         Em7
                  why was he so nervous
|---3-3-(3)-3-3-3---3-3-(3)-3-3-3-|---3-3-(3)-3-3-3---------|
|---3-3-(3)-3-3-3---3-3-(3)-3-3-3-|---3-3-(3)-3-3-3---------|
|---0-0-(0)-0-0-0---0-0-(0)-0-0-0-|---0-0-(0)-0-0-0---------|
|---------------------------------|-------------------------|
|---------------------------------|-2---------------0-0-2-4-|
|-3---------------2---------------|-0-----------------------|


  D               D/C#              D/B             D
 he took her to the park                           she crossed her arms
|---2-2-(2)-2-2-2---2-2-(2)-2-2-2-|---2-2-(2)-2-2-2---2-2-(2)-2-2-2--|
|---3-3-(3)-3-3-3---3-3-(3)-3-3-3-|---3-3-(3)-3-3-3---3-3-(3)-3-3-3--|
|---2-2-(2)-2-2-2---2-2-(2)-2-2-2-|---2-2-(2)-2-2-2---2-2-(2)-2-2-2--|
|-0-------------------------------|----------------------------------|
|-----------------4---------------|-2---------------0----------------|
|---------------------------------|----------------------------------|


  G               Dadd11/F#         Em7
                  and lowered her eyelids
|---3-3-(3)-3-3-3---3-3-(3)-3-3-3-|---3-3-(3)-3-3-3---------|
|---3-3-(3)-3-3-3---3-3-(3)-3-3-3-|---3-3-(3)-3-3-3---------|
|---0-0-(0)-0-0-0---0-0-(0)-0-0-0-|---0-0-(0)-0-0-0---------|
|---------------------------------|-------------------------|
|---------------------------------|-2---------------0-0-2-0-|
|-3---------------2---------------|-0-----------------------|


   Chorus
    G               A                 D               Cadd9
     someday somebody's gonna ask you
|----3-3-(3)-3-3-3---0-0-(0)-0-0-0-|---2-2-(2)-2-2-2---3-3-(3)-3-3-3--|
|----3-3-(3)-3-3-3---2-2-(2)-2-2-2-|---3-3-(3)-3-3-3---3-3-(3)-3-3-3--|
|----0-0-(0)-0-0-0---2-2-(2)-2-2-2-|---2-2-(2)-2-2-2---0-0-(0)-0-0-0--|
|--------------------2-2-(2)-2-2-2-|-0--------------------------------|
|------------------0---------------|-----------------3----------------|
|--3-------------------------------|----------------------------------|

    G               A                 D               Cadd9
     a question that you should say yes to           once in your life
|----3-3-(3)-3-3-3---0-0-(0)-0-0-0-|---2-2-(2)-2-2-2---3-3-(3)-3-3-3--|
|----3-3-(3)-3-3-3---2-2-(2)-2-2-2-|---3-3-(3)-3-3-3---3-3-(3)-3-3-3--|
|----0-0-(0)-0-0-0---2-2-(2)-2-2-2-|---2-2-(2)-2-2-2---0-0-(0)-0-0-0--|
|--------------------2-2-(2)-2-2-2-|-0--------------------------------|
|------------------0---------------|-----------------3----------------|
|--3-------------------------------|----------------------------------|

  G               Bm                G
                  baby tonight        I've got a question for you
|---3-3-(3)-3-3-3---2-2-(2)-2-2-2-|---3-3-(3)-3-3-3---------|
|---3-3-(3)-3-3-3---3-3-(3)-3-3-3-|---3-3-(3)-3-3-3---------|
|---0-0-(0)-0-0-0---4-4-(4)-4-4-4-|---0-0-(0)-0-0-0---------|
|-------------------4-4-(4)-4-4-4-|-------------------------|
|-----------------2---------------|-----------------0-0-2-4-|
|-3-------------------------------|-3-----------------------|


 Pre-Verse
  D               D/C#              D/B
 
|---2-2-(2)-2-2-2---2-2-(2)-2-2-2-|---2-2-(2)-2-2-2---------|
|---3-3-(3)-3-3-3---3-3-(3)-3-3-3-|---3-3-(3)-3-3-3---------|
|---2-2-(2)-2-2-2---2-2-(2)-2-2-2-|---2-2-(2)-2-2-2---------|
|-0-------------------------------|-------------------------|
|-----------------4---------------|-2---------------0-0-2-0-|
|---------------------------------|-------------------------|


  G               Dadd11/F#         Em7

|---3-3-(3)-3-3-3---3-3-(3)-3-3-3-|---3-3-(3)-3-3-3---------|
|---3-3-(3)-3-3-3---3-3-(3)-3-3-3-|---3-3-(3)-3-3-3---------|
|---0-0-(0)-0-0-0---0-0-(0)-0-0-0-|---0-0-(0)-0-0-0---------|
|---------------------------------|-------------------------|
|---------------------------------|-2---------------0-0-2-4-|
|-3---------------2---------------|-0-----------------------|


 Verse
  D               D/C#              D/B             D
  she'd had no idea                                 started to cry             
|---2-2-(2)-2-2-2---2-2-(2)-2-2-2-|---2-2-(2)-2-2-2---2-2-(2)-2-2-2--|
|---3-3-(3)-3-3-3---3-3-(3)-3-3-3-|---3-3-(3)-3-3-3---3-3-(3)-3-3-3--|
|---2-2-(2)-2-2-2---2-2-(2)-2-2-2-|---2-2-(2)-2-2-2---2-2-(2)-2-2-2--|
|-0-------------------------------|----------------------------------|
|-----------------4---------------|-2---------------0----------------|
|---------------------------------|----------------------------------|


  G               Dadd11/F#         Em7
                  she said in a good way
|---3-3-(3)-3-3-3---3-3-(3)-3-3-3-|---3-3-(3)-3-3-3---------|
|---3-3-(3)-3-3-3---3-3-(3)-3-3-3-|---3-3-(3)-3-3-3---------|
|---0-0-(0)-0-0-0---0-0-(0)-0-0-0-|---0-0-(0)-0-0-0---------|
|---------------------------------|-------------------------|
|---------------------------------|-2---------------0-0-2-4-|
|-3---------------2---------------|-0-----------------------|


  D               D/C#              D/B             D
  he took her by the hand                           walked her back home
|---2-2-(2)-2-2-2---2-2-(2)-2-2-2-|---2-2-(2)-2-2-2---2-2-(2)-2-2-2--|
|---3-3-(3)-3-3-3---3-3-(3)-3-3-3-|---3-3-(3)-3-3-3---3-3-(3)-3-3-3--|
|---2-2-(2)-2-2-2---2-2-(2)-2-2-2-|---2-2-(2)-2-2-2---2-2-(2)-2-2-2--|
|-0-------------------------------|----------------------------------|
|-----------------4---------------|-2---------------0----------------|
|---------------------------------|----------------------------------|


  G               Dadd11/F#         Em7
                  and they took the long way
|---3-3-(3)-3-3-3---3-3-(3)-3-3-3-|---3-3-(3)-3-3-3---------|
|---3-3-(3)-3-3-3---3-3-(3)-3-3-3-|---3-3-(3)-3-3-3---------|
|---0-0-(0)-0-0-0---0-0-(0)-0-0-0-|---0-0-(0)-0-0-0---------|
|---------------------------------|-------------------------|
|---------------------------------|-2---------------0-0-2-0-|
|-3---------------2---------------|-0-----------------------|


 Chorus
  G               A                 D               Cadd9
    someday somebody's gonna ask you
|---3-3-(3)-3-3-3---0-0-(0)-0-0-0-|---2-2-(2)-2-2-2---3--3----------|
|---3-3-(3)-3-3-3---2-2-(2)-2-2-2-|---3-3-(3)-3-3-3---3--3----------|
|---0-0-(0)-0-0-0---2-2-(2)-2-2-2-|---2-2-(2)-2-2-2---0--0--0----0p-|
|-------------------2-2-(2)-2-2-2-|-0--------------------2--0-h2----|
|-----------------0---------------|-----------------3-3-(3)---------|
|-3-------------------------------|---------------------------------|


  G               A                 D               Cadd9
    a question that you should say yes to           once in your life
|---3-3-(3)-3-3-3---0-0-(0)-0-0-0-|---2-2-(2)-2-2-2---3-3-(3)-3-3-3--|
|---3-3-(3)-3-3-3---2-2-(2)-2-2-2-|---3-3-(3)-3-3-3---3-3-(3)-3-3-3--|
|---0-0-(0)-0-0-0---2-2-(2)-2-2-2-|---2-2-(2)-2-2-2---0-0-(0)-0-0-0--|
|-------------------2-2-(2)-2-2-2-|-0--------------------------------|
|-----------------0---------------|-----------------3----------------|
|-3-------------------------------|----------------------------------|


  G               Bm                G
                  baby tonight        I've got a question for you
|---3-3-(3)-3-3-3---2-2-(2)-2-2-2-|---3-3-(3)-3-3-3---------|
|---3-3-(3)-3-3-3---3-3-(3)-3-3-3-|---3-3-(3)-3-3-3---------|
|---0-0-(0)-0-0-0---4-4-(4)-4-4-4-|---0-0-(0)-0-0-0---------|
|-------------------4-4-(4)-4-4-4-|-------------------------|
|-----------------2---------------|-----------------0-0-2-4-|
|-3-------------------------------|-3-----------------------|


 Outro
  D               D/C#              D/B             D
  
|---2-2-(2)-2-2-2---2-2-(2)-2-2-2-|---2-2-(2)-2-2-2---2-2-(2)-3-3-3--|
|---3-3-(3)-3-3-3---3-3-(3)-3-3-3-|---3-3-(3)-3-3-3---3-3-(3)-3-3-3--|
|---2-2-(2)-2-2-2---2-2-(2)-2-2-2-|---2-2-(2)-2-2-2---2-2-(2)-2-2-2--|
|-0-------------------------------|----------------------------------|
|-----------------4---------------|-2---------------0----------------|
|---------------------------------|----------------------------------|


  G               A                 D               D/C#
    I've got a question for you
|---3-3-(3)-3-3-3---0-0-(0)-0-0-0-|---2-2-(2)-2-2-2---2-2-(2)-2-2-2--|
|---3-3-(3)-3-3-3---2-2-(2)-2-2-2-|---3-3-(3)-3-3-3---3-3-(3)-3-3-3--|
|---0-0-(0)-0-0-0---2-2-(2)-2-2-2-|---2-2-(2)-2-2-2---2-2-(2)-2-2-2--|
|-------------------2-2-(2)-2-2-2-|-0--------------------------------|
|-----------------0---------------|-----------------4----------------|
|-3-------------------------------|----------------------------------|

                                      
  D/B             D                 G           A         D

|---2-2-(2)-2-2-2---2-2-(2)-2-3-3-|---3-3-3-3-3-0--0----|--2-----|
|---3-3-(3)-3-3-3---3-3-(3)-3-3-3-|---3-3-3-3-3-2--2----|--3-----|
|---2-2-(2)-2-2-2---2-2-(2)-2-2-2-|---0-0-0-0-0-2--2----|--2-----|
|---------------------------------|-------------2--2----|--0-----|
|-2---------------0---------------|-------0-2-2-0--0----|--0-----|
|---------------------------------|-3-----3-3-3---------|--------|
            
Tabs too difficult? Try these video lessons and learn fast.


comments powered by Disqus
↑ Back to top | Tablatures and chords are parodies/interpretations of the original songs. You may use it for private study, scholarship, research or language learning purposes only