» » »

O.K. Go, Here It Goes Again Tabs (ver.3)

Artists:  A B C D E F G H I J K L M N O P Q R S T U V W X Y Z # 

Here It Goes Again Tabs (ver.3)

O.K. Go Tabs
Rating:
0/5 (0 votes)
Here It Goes Again lessons Tabs too difficult? Try these video lessons and learn fast
                enjoy this tab HERE IT GOES AGAIN by OK GO

*=palm mute
/=slide up

E-------------------------------------------------------------------------|
B-------------------------------------------------------------------------|
G--5-5-------5----5-5-------3-3-------5---------------3-------------------|
D--5-5--5-5--5----5-5--5-5--3-3--3-3--5------5-5------3------3-3----------|
A--3-3--5-5--3----3-3--5-5--1-1--3-3--3------5-5------1------3-3----------|
E-------3-3------------3-3-------1-1---------3-3-------------1-1----------|

E-------------------------------------------------------------------------|
B-------------------------------------------------------------------------|
G--5-----------------3----------------5-5-------3-3-------------2---------|
D--5-------5-5-------3-------3-3------5-5--5-5--3-3--3-3---2----2----2----|
A--3-------5-5-------1-------3-3------3-3--5-5--1-1--3-3---2----0----2----|
E----------3-3---------------1-1-----------3-3-------1-1---0---------0----|

E-------------------------------------------------------------------------|
B-------------------------------------------------------------------------|
G--2------5-5-------3-3------------------5-5-------3-3--------------------|
D--2--2---5-5--5-5--3-3--3-3--7-7--5-5---5-5--5-5--3-3--3-3--7-7--5-5-----|
A--0--2---3-3--5-5--1-1--3-3--7-7--5-5---3-3--5-5--1-1--3-3--7-7--5-5-----|
E-----0--------3-3-------1-1--5-5--3-3--------3-3-------1-1--5-5--3-3-----|

E-------------------------------------|-----------------------------------|
B-------------------------------------|-----------------------------------|
G--5--3-3-3-3-3-3-3-3-3-3-------------|--5---------------3----------------|
D--5--3-3-3-3-3-3-3-3-3-3-(not exact)-|--5------5-5------3------3-3--(x2)-|
A--3--1-1-1-1-1-1-1-1-1-1-(strumming)-|--3------5-5------1------3-3-------|
E-------------------------------------|---------3-3-------------1-1-------|
      * * * * * * * * * *     

E-----------------------------------------|-------------------------------|
B-----------------------------------------|-------------------------------|
G--5-5-------3-3------------2-------2-----|--5-5-------3-3----------------|
D--5-5--5-5--3-3--3-3---2---2---2---2--2--|--5-5--5-5--3-3--3-3--7-7--5-5-|
A--3-3--5-5--1-1--3-3---2---0---2---0--2--|--3-3--5-5--1-1--3-3--7-7--5-5-|
E-------3-3-------1-1---0-------0------0--|-------3-3-------1-1--5-5--3-3-|

E--------------------------------|----------------------------------------|
B--------------------------------|----------------------------------------|
G--5-5-------3-3-----------------|--5-5-------3-3-------------------------|
D--5-5--5-5--3-3--3-3--7-7--5-5--|--5-5--5-5--3-3--3-3--7-7--5-5----------|
A--3-3--5-5--1-1--3-3--7-7--5-5--|--3-3--5-5--1-1--3-3--7-7--5-5----------|
E-------3-3-------1-1--5-5--3-3--|-------3-3-------1-1--5-5--3-3----------|

(SOLO)
E------------------------------------------------------------------------|
B--8--8-8---8-8---8-8--8-8---8-8---8-8---8-8---8-8---6-6---6-6-----------|
G--8--8-8---8-8---8-8--8-8---8-8---7-7---7-7---7-7---7-7---7-7-----------|
D------------------------------------------------------------------------|
A------------------------------------------------------------------------|
E------------------------------------------------------------------------|

E------------------------------------------------------------------------|
B--8--8-8---8-8---8-8---8-8---7---8---8-8---8-8---8-8---8-8---8-8--8-8---|
G--8--8-8---8-8---8-8---8-8---8---8---8-8---8-8---8-8---8-8---7-7--7-7---|
D------------------------------------------------------------------------|
A------------------------------------------------------------------------|
E------------------------------------------------------------------------|

E-------------------------------------------------------------|----------|
B--8-8---8-8---6-6---6-6---8-8--8-8--8-8---8-8-8-8-8-8-8-8-8--|----------|
G--7-7---7-7---7-7---7-7---8-8--8-8--8-8---7-7-7-7-8-8-8-8-8--|-5-5------|
D-------------------------------------------------------------|-5-5--5-5-|
A-------------------------------------------------------------|-3-3--5-5-|
E-------------------------------------------------------------|------3-3-|

E------------------------------------------------------------------------|
B------------------------------------------------------------------------|
G--3-3------------------5---------------3---------------5----------------|
D--3-3--3-3--7-7--5-5---5------5-5------3------3-3------5------5-5-------|
A--1-1--3-3--7-7--5-5---3------5-5------1------3-3------3------5-5-------|
E-------1-1--5-5--3-3----------3-3-------------1-1-------------3-3-------|

E---------------------------|--------------------------------------------|
B---------------------------|--------------------------------------------|
G--3------------------------|--5-5-------3-3-----------------------------|
D--3------3-----------------|--5-5--5-5--3-3--3-3--7-7--5-5--------------|
A--1------3-(hold the note)-|--3-3--5-5--1-1--3-3--7-7--5-5--(x7)--------|
E---------1-----------------|-------3-3-------1-1--5-5--3-3--------------|

E------------------------------------------------------------------------|
B------------------------------------------------------------------------|
G--5/-/-/-/-/-/-/--------------------------------------------------------|
D--5/-/-/-/-/-/-/--------------------------------------------------------|
A--3/-/-/-/-/-/-/--------------------------------------------------------|
E------------------------------------------------------------------------|
            
Submit corrections

comments powered by Disqus
↑ Back to top | O.K. Go Tabs for Here It Goes Again. Lyrics for acoustic guitar and electric guitar. Tablatures and chords are parodies/interpretations of the original songs. You may use it for private study, scholarship, research or language learning purposes only