» » »

Here It Goes Again Tabs (ver.2)

Artists:  A B C D E F G H I J K L M N O P Q R S T U V W X Y Z # 

Here It Goes Again Tabs (ver.2)

O.K. Go
Rating:
0/5 (0 votes)

Tabs too difficult? Try these video lessons and learn fast.
                Intro:

     C       C    G    C            C    G    A#   F   C
e---------------3-3-3---------- -------3-3-3-----1-1-1---|
B-----------5-5-3-3-3-5--5----- ---5-5-3-3-3-3-3-1-1-1-5-|
G--5--------5-5-4-4-4-5--5----- ---5-5-4-4-4-3-3-2-2-2-5-|
D--5-x16----5-5-5-5-5-5--5-x16-- --5-5-5-5-5-3-3-3-3-3-5-|
A--3--------3-3-5-5-5-3--3------ --3-3-5-5-5-1-1-3-3-3-3-|
E---------------3-3-3----------- ------3-3-3-----1-1-1---|
  (C x16 is a gradual fade in)   (Play this for bridge aslo)


Verse:

   C    G    A#   F
e----------------------|
B----------------------|
G--5---------3---------|
D--5-x8-5-x8-3-X8-3-x8-|
A--3----5----1----3----|
E-------3---------1----|

(2nd Guitar plays quick strums of the same chords only barred on downbeats)

Pre-chorus: Just when you think...

   E    A    E    A
e--0---------0------|
B--0----2----0----2-|
G--1----2----1----2-|
D--2----2----2----2-|
A--2----0----2----0-|
E--0---------0------|


Chorus: Here it goes again..
    C   G     A#   F    A    G   C       A#
e------3-3-3-----1-1-1-5-5-3-3-3---- -------------------------|
B--5-5-3-3-3-3-3-1-1-1-5-5-3-3-3-5-- --3----------------------|
G--5-5-4-4-4-3-3-2-2-2-6-6-4-4-4-5-- --3----------------------|
D--5-5-5-5-5-3-3-3-3-3-7-7-5-5-5-5-- --3-x16------------------|
A--3-3-5-5-5-1-1-3-3-3-7-7-5-5-5-3-- --1----------------------|
E------3-3-3-----1-1-1-5-5-3-3-3---- -------------------------|
                                       (last "oh here it goes")


Solo:
   D#    A#
e----------6------|
B---8------6------|
G---8------7------|
D--(8)----(8)-----|
A--(6)----(8)-----|
E---------(6)-----|
(Very difficult to hear the changes but it sounds like you just play the upper part of 
barre chords)

Thanks Alot to phantomhunter11 for catching my mistake.
            
Tabs too difficult? Try these video lessons and learn fast.




comments powered by Disqus
↑ Back to top | Tablatures and chords are parodies/interpretations of the original songs. You may use it for private study, scholarship, research or language learning purposes only