» » »

O.K. Go, Here It Goes Again Bass tabs (ver.1)

Artists:  A B C D E F G H I J K L M N O P Q R S T U V W X Y Z # 

Here It Goes Again Bass tabs (ver.1)

O.K. Go Tabs
 Rating:
4/5 (4 votes)
Here It Goes Again lessons Tabs too difficult? Try these video lessons and learn fast
1
                 .::OK Go - Here It Goes Again::. [in scroll order]

      *Intro*                                
G|---------------||--------------------------||
D|---------------||--------------------------||
A|--3-3-------3--||--3-3---------1-1---------||
E|------3-3-3----||------3-3--3-------1-1--1-||
                                          
     *1st Verse*
G|-------------------||
D|-------------------||X2 
A|-3-------1---------||
E|----3-3-----1-1----||

     *Bridge*
G|---------------------|--------------------------------------------||
D|---------------------|--------------------------------------------||
A|-3-3-------1-1-------|--7----------7-5-----------7--------7-5-7-5-||
E|-----3-3-3-----1-1-1-|-7---7-5-7--5----8-7---7--7--5-7-5----------||
 
    *Chorus 1*
G|---------------------------------------|
D|---------------------------------------|
A|--3-3---------1-1----------------------|
E|------3-3--3------1-1--1---5-5--3-3--3-|
    (cont.)
 G|---------------------------------------|------------------||
 D|---------------------------------------|------------------||
 A|--3-3---------1-1----------------------|------------------||(guitar build)
 E|------3-3--3------1-1--1---5-5--3-3--3-|-444444444444443-3||

    *Verse 2*
G|--------------------------------------||
D|--------------------------------------||
A|-33333353-22222232-11111131-0000------|| X2
E|--------------------------------1133--||

    *Bridge*
G|---------------------|--------------------------------------------||
D|---------------------|--------------------------------------------||
A|-3-3-------1-1-------|--7----------7-5-----------7--------7-5-7-5-||
E|-----3-3-3-----1-1-1-|-7---7-5-7--5----8-7---7--7--5-7-5----------||

   *Chorus 2*
G|---------------------------------------||
D|---------------------------------------||
A|--3-3---------1-1----------------------||X3
E|------3-3--3------1-1--1---5-5--3-3--3-||

   *Alt. Verse*
G|-------------------|-------------------------------------------------|
D|-------------------|-1111111111111h3---------------------------------|
A|-------------------|----------------1111111111111h2-33333333---------|
E|-444444444444446-6-|----------------------------------------33334444-|
   (cont.)
 G|--------------------------------------------------|
 D|-11--11--11--1h3----------------------------------|
 A|---11--11--11----1111111111111h2-33333333---------|(guitar break)
 E|----------------------------------------33334444--|

   *Verse 3*
G|------------|---------------||
D|------------|---------------||
A|------------|-3------1------||
E|-5-5--3-3--3|----3-3----1-1-||

   *Outro* (chorus)
G|---------------------------------------|   |-------------------||
D|---------------------------------------|   |-------------------||
A|--3-3---------1-1----------------------|X7 |-----------------6-||
E|------3-3--3------1-1--1---5-5--3-3--3-|   |-4444444444444444--||


 For Bridge timing, listen to song very closely. 

-FlyByNite 10-07-06
            
Submit corrections

comments powered by Disqus
↑ Back to top | O.K. Go Bass for Here It Goes Again. Lyrics for acoustic guitar and electric guitar. 1 Tablatures and chords are parodies/interpretations of the original songs. You may use it for private study, scholarship, research or language learning purposes only