» » »

O.K. Go, A Million Way Bass tabs (ver.3)

Artists:  A B C D E F G H I J K L M N O P Q R S T U V W X Y Z # 

A Million Way Bass tabs (ver.3)

O.K. Go Tabs
 Rating:
4/5 (4 votes)
A Million Way lessons Tabs too difficult? Try these video lessons and learn fast
                ----------------------------------------------------------------------------
			     A Million Ways - Ok Go
----------------------------------------------------------------------------



Tuning: EADG

I got sick of all the tabs for this song being wrong in one part or another, so I went 
note by note and I am pretty confident that this is correct. Enjoy!


Riff 1
G|-------------------------------------------------------------------------|
D|--------------10---9----7--7--7\--------5h7-----5h7--5-------------------|
A|--7--7--7\-------------------------5h7------5h7--------------------------|
E|-----------------8---7---------------------------------------------------|


Riff 2
G|-------------------------------------------------------------------------|
D|------5----------------------7---9---------------------------------------|
A|-----------------------9---5-------7-------------------------------------|
E|--3-3-----3--5\----7-7-----------------3-3---5-5-5----5--7---------------|


Riff 3
G|-------------------------------------------------------------------------|
D|--------5---------4---------5---------4----------------------------------|
A|------------2--2------3--3------6--6-------------------------------------|
E|--3--3-------------------------------------------------------------------|


Riff 4
G|----------9-9-------------------------------5-5--------------12----11----|
D|--9-9-------------9-9------10---9---7-7-------------7-7------------------|
A|------7-7-----7-7-----7-7---------------------------------------10----9--|
E|------------------------------8---7-----5-5-----5-5-----5-5--------------|


Riff 5
G|--9-9-------------9-9-----------------------5-5--------------------------|
D|----------9-9--------------10---9---7-7-------------7-7------7---8-------|
A|------7-7-----7-7-----7-7------------------------------------------------|
E|------------------------------8---7-----5-5-----5-5-----5-5----5---6-----|


Riff 6
G|----------9-9-------------------------------5-5--------------------------|
D|--9-9-------------9-9------10---9---7-7-------------7-7-------7----8-----|
A|------7-7-----7-7-----7-7------------------------------------------------|
E|------------------------------8---7-----5-5-----5-5-----5-5-----5----6---|


Riff 7
G|--------16-------16-16-14-12--------14-------14-14-12--------------------|
D|--12h14----12h14--------------12h14----12h14----------14-12-14-----------|
A|-------------------------------------------------------------------------|
E|-------------------------------------------------------------------------|


Riff 8
G|----5-5---5-5---5-5---5-5-5-8-8-8-4-4-4-8--4--2--0-----------------------|
D|-------------------------------------------------------------------------|
A|-------------------------------------------------------------------------|
E|-------------------------------------------------------------------------|

The order of the riffs in the song is as follows:

1 (4X)
2
3
1 (2X)
4
5
6
2
3 (2X)
1 (2X)
rest
7 (2X)
8
1 (2X)
6
4
5
6
3


Riffs 4,5, and 6 are basically the same with slight variations so if you are not picky 
can just play one for all of them. Let me know if I messed up on the order of riffs.


| /  slide up
| \  slide down
| h  hammer-on
| p  pull-off
| ~  vibrato
| +  harmonic
| x  Mute note
===============================================================================
            
Submit corrections

comments powered by Disqus
↑ Back to top | O.K. Go Bass for A Million Way. Lyrics for acoustic guitar and electric guitar. Tablatures and chords are parodies/interpretations of the original songs. You may use it for private study, scholarship, research or language learning purposes only