>
 >
A Million Way

A Million Way Bass Tabs

O.K. Go - A Million Way chords, tabs, tablatures, lyrics

Guitar lessons | Add/correct | Request | Top 50 tabs Artists:  A B C D E F G H I J K L M N O P Q R S T U V W X Y Z 0-9

A Million Way Bass Tabs – O.K. Go

CD, Sheet music, Poster

Do you like A Million Way? Share with your friends now
Bass Tabs
Band: Ok Go!
Bassist:

* = staccato
()= ghost note (not strummed)
~ = let ring
/ = slide up
\ = slide down

its a bit hard at the beginning but once you get the hang of it
gets really easy and fun to
play. im almost sure its 100%
correct,. listen to the song to get the timing.

Intro & Verse:

g ------------------------------------------|
d -----------10--9-------------5-7------5-7-|x4
a -7-7-7\-----------------------------------|
E ----------8--7---5-5-5\--/(5)----3/(5)----|

Pre Chorus:

g ------------------------------------------------------------------|
d ----5----------------9---------14---------------------------------|x1
a ---------------------------------14-------------------------------|
E --3----3/(12)\(7)-7-7---7/(12)-----12--12/(14)\-8-8-8---8/(10)\---|

g ------------------------------|
d ----5*-----9*-----10*-----13*-|x1
a ------------------------------|
E --3*----7*----8*------11*-----|


Chorus:

g ---------------------------------------------------|
d -----------10--9---7-7-7-------5-7------5-7-------|x2
a ---------------------------------------------------|
E --12-12-12\--8--7--------\--/(5)----3/(5)----------|

2nd Verse:

g -------9-9-----------------------------------------12-11-|
d -9-9----------9-9------10--9---7---------7-7-------------|
a ----7-7---7-7-----7-7--------------7-7-----------10-9----|
E ----------------------8--7---5--5-5---5-5---5-5/---------|


g --9---------9-9--------------------------------------|
d ------9-9-----------10--9--7-----------7-7----7*-9*--|
a 7--7-7----7-7---7-7--------------7-7-----------------|
E -------------------8--7---5--5-5----5-5---5-5--------|


g -------9-9-------------------------------------------------|
d -9-9----------9-9------10--9---7---------7-7---------------|
a ----7-7---7-7-----7-7--------------7-7-----------7--9------|
E ----------------------8--7---5--5-5---5-5---5-5/-----------|


Pre Chorus:

g ------------------------------------------------------------------|
d ----5----------------9---------14---------------------------------|x1
a ---------------------------------14-------------------------------|
E --3----3/(12)\(7)-7-7---7/(12)-----12--12/(14)\-8-8-8---8/(10)\---|

g ------------------------------|
d ----5*-----9*-----10*-----13*-|x2
a ------------------------------|
E --3*----7*----8*------11*-----|

Chorus:
                                          x2
g ------------------------------------------|----|
d --------10--9----7-7-7-------5-7------5-7-|----|
a -7-7-7\-----------------------------------|-7~-|<-second time end with
E ----------8--7-----------/(5)----3/(5)----|----|

Interlude:

g ----------16------16--16-14-12-------------14------14--14-12------|
d ----12/14----12/14------------14\12---12/14---12/14---------14\12-|x2
a ------------------------------------------------------------------|
E -12---------------------------------x-----------------------------|

g -----------------------------------------------------|
d -----------------------------------------------------|
a -15-15--15-15-15-15-15-15-/-18-18-18\-15-17\16\14\12\|
E -----------------------------------------------------|

Chorus:

g ------------------------------------------|
d -----------10--9-------------5-7------5-7-|x2
a -7-7-7\-----------------------------------|
E ----------8--7---5-5-5\--/(5)----3/(5)----|


Chorus & Outro:

g -------9-9-----------------------------------------12-11--9-|
d -9-9----------9-9------10--9---7---------7-7----------------|
a ----7-7---7-7-----7-7--------------7-7-----------10--9--7---|
E ----------------------8--7---5--5-5---5-5---5-5/------------|


g -----------9-9-------------------------------------|
d -----9-9-----------10--9--7-----------7-7----7*-9*-|
a -7-7----7-7---7-7--------------7-7-----------------|
E ------------------8--7---5--5-5----5-5---5-5-------|


g -------9-9-------------------------------------------------|
d -9-9----------9-9------10--9---7---------7-7---------------|
a ----7-7---7-7-----7-7--------------7-7-----------7--9------|
E ----------------------8--7---5--5-5---5-5---5-5/-----------|

End:

g ---------------------------------|
d ----5*-----9*-----10*-----13*----|x1
a ---------------------------------|
E --3*----7*----8*------11*-----12\|


amazing song. awesome bass line....





Comments


Popular O.K. Go tabs & chords
Needing Getting Bass Tabs
Before The Earth Was Round 1 Chords
End Love Chords
Here It Goes Again Chords
Skyscrapers 1 Chords
Do What You Want 1 Tabs
Do What You Want Intro Tabs
Here Comes The Fire Chicago Fire Tabs
Oh Lately Its So Quiet 1 Tabs
Return Ukulele


Song lyrics



↑ Back to top | Tablatures and chords are parodies/interpretations of the original songs. You may use it for private study, scholarship, research or language learning purposes only
© 2014 AZChords.com Contact us | Privacy policy | DMCA | Add/correct tabs | Request tabs | Top 50 tabs