» » »

O.K. Go, A Million Way Tabs (ver.2)

Artists:  A B C D E F G H I J K L M N O P Q R S T U V W X Y Z # 

A Million Way Tabs (ver.2)

O.K. Go Tabs
 Rating:
4/5 (4 votes)
A Million Way lessons Tabs too difficult? Try these video lessons and learn fast
1
                -------------------------------------------------------------------------------
                             A Million Ways – Ok Go
-------------------------------------------------------------------------------

Note: I didn’t include the bass which is most of the song, but you can find two great 
on this very site. Feel free to email any questions or corrections

Tuning: Standard

INTRO:

Guitar 1 (distorted):
e|--3-3-3-3-3-3-3-3-3-3-3----------------------------------------------------|
B|--3-3-3-3-3-3-3-3-3-3-3----------------------------------------------------|
G|--3-3-3-3-3-3-3-3-3-3-3----------------------------------------------------|
D|---------------------------------------------------------------------------|
A|---------------------------------------------------------------------------|
E|---------------------------------------------------------------------------|

INTRO PART 2:
(quick strums)

Guitar 1: (continues while little intro solo is going)
e|--12-12---12-12---12-12-12---12-12-----------------------------------------|
B|--12-12---12-12---12-12-12---12-12-----------------------------------------|
G|--12-12---12-12---12-12-12---12-12-----------------------------------------|
D|---------------------------------------------------------------------------|
A|---------------------------------------------------------------------------|
E|---------------------------------------------------------------------------|

Guitar 2: (repeat twice)
e|---------------------------------------------------------------------------|
B|------------------------------------------12--------12-12------------------|
G|----------------------------------------------------------14-12------14----|
D|------------------------------------12h14-----12h14-------------12h14-------|
A|---------------------------------------------------------------------------|
E|---------------------------------------------------------------------------|

e|---------------------------------------------------------------------------|
B|---------------------------------------------------------------------------|
G|--------14-14-12-----------------------------------------------------------|
D|--12h14----------14-12-14--------------------------------------------------|
A|---------------------------------------------------------------------------|
E|---------------------------------------------------------------------------|

VERSE:

Bass

Eventually this’ll come up again a few times:

Guitar 1: (continues while little intro solo is going)
e|--12-12---12-12---12-12-12---12-12-----------------------------------------|
B|--12-12---12-12---12-12-12---12-12-----------------------------------------|
G|--12-12---12-12---12-12-12---12-12-----------------------------------------|
D|---------------------------------------------------------------------------|
A|---------------------------------------------------------------------------|
E|---------------------------------------------------------------------------|

As well as the intro solo

BRIDGE:
Just More Bass

Then there’s a bit at the end:
e|---9^^-9^^-11^^-11^^-12^^--------------------------------------------------|
B|---------------------------------------------------------------------------|
G|---------------------------------------------------------------------------|
D|---------------------------------------------------------------------------|
A|---------------------------------------------------------------------------|
E|---------------------------------------------------------------------------|


e|---------------------------------------------------------------------------|
B|---------------------------------------------------------------------------|
G|---------------------------------------------------------------------------|
D|---------------------------------------------------------------------------|
A|---------------------------------------------------------------------------|
E|---------------------------------------------------------------------------|


| /  slide up
| \  slide down
| h  hammer-on
| p  pull-off
| ~  vibrato
| +  harmonic
| x  Mute note
===============================================================================
            
Submit corrections

comments powered by Disqus
↑ Back to top | O.K. Go Tabs for A Million Way. Lyrics for acoustic guitar and electric guitar. 1 Tablatures and chords are parodies/interpretations of the original songs. You may use it for private study, scholarship, research or language learning purposes only