>
 >
Plastis Wafer

Plastis Wafer Guitar Tabs

Of Montreal - Plastis Wafer chords, tabs, tablatures, lyrics

Guitar lessons | Add/correct | Request | Top 50 tabs Artists:  A B C D E F G H I J K L M N O P Q R S T U V W X Y Z 0-9

Plastis Wafer Guitar Tabs – Of Montreal

CD, Sheet music, Poster

Do you like Plastis Wafer? Share with your friends now
Bass TabsBass Tabs v2ChordsTabsUkulele
F#m/A                                  Am/C
Lover face, I view you as the revolver introduced in my play, Act One
Ebmaj7                                            Dm
Lover face, wanna make you ejaculate till it's no longer fun
Em7                 Ebmaj7                      F
I confess to really being quite charmed by your feminine effects
           Bb                         Dm                Gm         F
You're the only one with whom I would role play Oedipus Rex

              Gm    Gm/Bb    Bb
I want you to be my pleasure puss 
          F              Dm           Bb
I want to know what it's like to be inside you
              Gm    Gm/Bb    Bb
I want you to be my pleasure puss 
          Dm          Am      Gm
I want to know how it feels

              Gm    Bb 
I want you to be my pleasure puss 
          F              Dm           Bb 
I want to know what it's like to be inside you
              Gm    Bb 
I want you to be my pleasure puss 
          Dm          Am     Gm
I want to know how it feels
                     F
When I give you that ooh la, ooh la la
                     Bb      Gm
When I give you that ooh la, ooh la la

Am/C                                Cm/Eb
Lover face, how your ass is pumping sweet licentious songs
Gbmaj7                                     Fm
Lover face, you're a scandal, your body is so wrong
Gm7                     Gbmaj7            Ab
Bless my lips with your Sunlandic kisses, kiss me 
          Db                        Fm
While our hands explore each other's human vessels
        Bbm                     Ab
Oh, you know, like four excited spiders

              Gm    Bb
I want you to be my pleasure puss 
          F              Dm           Bb
I want to know what it's like to be inside you
              Gm    Bb
I want you to be my pleasure puss 
          Dm          Am      Gm
I want to know how it feels

              Gm    Bb 
I want you to be my pleasure puss 
          F              Dm           Bb 
I want to know what it's like to be inside you
              Gm    Bb 
I want you to be my pleasure puss 
          Dm          Am     Gm
I want to know how it feels
                     F
When I give you that ooh la, ooh la la
                     Bb      Gm
When I give you that ooh la, ooh la la

Am                       C
You give me such a rush, make my whole body blush
F                        Bb
I don't care if they say you're just my crutch 
                Am    Dm/F                               C    F
I know you're not,       you’re the only good thing I've got
Bb                              Dm             Gm     Db   F
Everything's so much more complicated over the phone


Am                                   Gsus4
You are such a fucking star, oh, you know you are
  Dm                                                               Csus4   C
I just awoke broke through today, had the mind to call your name internally
           Bb      Bbm/Db       F
Through my seventh sense that's hallucinating
Anyway, we're artifacts of demigodly zero logic denizens
Am                      Gsus4         Dm
Oh, I just came in your arms tonight, you and I are friends
                                     Csus4   C
Not some polemic to be puzzled over, listen
     Bb     Bbm/Db   F
They set my wings so randomly
When you’re dead I'll search for you
Like Orpheus, I'll find you some way
Am                                   Gsus4
You are such a fucking star, oh, you know you are
Dm                                                          Csus4
 I'll tell you one thing I know, you want my kisses in your Narcissistic 
   C
collapse
Bb     Bbm/Db  F
 Cause it's so painful when they amputate the ego

Eb   Fm

Db          Eb       Fm       Eb

Ab
See all the pretty corpses lined up along the beach
They're ringing the bells of the church to drive everybody insane
As the patina lips of the fountain stallion vomits water on this shirtless little brat
I can't get all those moving lights off her face
So I went out to the country, sat down on some straw
But I'm not putting out for God tonight, keeping my legs shut
It's a mistake lighting little white candles to make him love you
He's cold by any city's standards and they wanna turn you down, it's messed up
"How bout if I wilt your plantations?"
"You know the nightmares, they don't forget about you?"
God damn the concierge to a dreadful reincarnation!
I think I can do it by myself, I'm just trying to get healthy



Part 1:(0:00)
The chords in this section are often completed by the bass meaning that
the chords given aren't strictly what is tabbed, but who the chord sounds
in the song.

Verse 1:(0:00)

Keyboard
   F#m/A           Am/C              Ebmaj7          Dm
e|-5---------------5---------------|-3---------------1--------------------|
b|-7---------------5---------------|-3---------------3--------------------|
g|-6---------------5---------------|-3---------------2--------4---5---2---|
d|---------------------------------|--------------------------------------|
a|---------------------------------|--------------------------------------|
e|---------------------------------|--------------------------------------|
Guitar
e|---------------------------------|---------------------/15/15\13--------|
b|---------------------------------|---------------------/15/15\13--------|
g|---------------------------------|--------------------------------------|
d|---------------------------------|--------------------------------------|
a|---------------------------------|--------------------------------------|
e|---------------------------------|--------------------------------------|

Keyboard
   Em7     Ebmaj7  F         Bb      Dm            Gm
e|-3-------3-------5-------|-10------13------------6-----------------------|
b|-3-------3-------6-------|-11------15------------8-----------------------|
g|-4-------3-------5-------|-10------14------------7-----------------------|
d|-------------------------|-----------------------------------------------|
a|-------------------------|-----------------------------------------------|
e|-------------------------|-----------------------------------------------|
Guitar
e|-------------------------|---------------------------------------10----8-|
b|-------------------------|-------------------------6h8-8h108-8h10--8h10--|
g|-------------------------|----------------------------7------------------|
d|-------------------------|-----------------------------------------------|
a|-------------------------|-----------------------------------------------|
e|-------------------------|-----------------------------------------------|

Keyboard
   F
e|-5-------------------------------------|
b|-6-------------------------------------|
g|-5-------------------------------------|
d|---------------------------------------|
a|---------------------------------------|
e|---------------------------------------|
Guitar
e|-------13----13-15/17-13-20/22-20------|
b|-13-15----15---------------------------|
g|---------------------------------------|
d|---------------------------------------|
a|---------------------------------------|
e|---------------------------------------|

Chorus:(0:34)

Keyboard
   Gm              Gm/Bb   Bb        F       Dm      Bb
e|-----------------10--10--10--10--|-----------------10--10--10--10--|
b|-11--11--11--11--11--11--11--11--|-10--10----------11--11--11--11--|
g|-12--12--12--12--12--12--10--10--|-10--10--10--10--10--10--10--10--|
d|-12--12--12--12------------------|-10--10--12--12------------------|
a|---------------------------------|---------12--12------------------|
e|---------------------------------|---------------------------------|

Keyboard
   Gm              Gm/Bb   Bb      Dm      Am    Gm
e|-----------------10--10--10--10-|--------8--8--6--6--6--6--6--6--6--6--|
b|-11--11--11--11--11--11--11--11-|--------10-10-8--8--8--8--8--8--8--8--|
g|-12--12--12--12--12--12--10--10-|10--10--9--9--7--7--7--7--7--7--7--7--|
d|-12--12--12--12-----------------|12--12--------------------------------|
a|--------------------------------|12--12--------------------------------|
e|--------------------------------|--------------------------------------|
Guitar
e|--------------------------------|--------------------------------------|
b|--------------------------------|--------------------------b10----r8---|
g|--------------------------------|--------------------------------------|
d|--------------------------------|--------------------------------------|
a|--------------------------------|--------------------------------------|
e|--------------------------------|--------------------------------------|

Guitar 1
   Gm              Bb              F       Dm      Bb
e|-----------------------------------------------------------------|
b|-----------------------------------------------------------------|
g|---------------------------------------xx7-xx7-------------------|
d|-5-xx5-xx5-xx5-xx8-xx8-xx8-xx8-xx3-xx3-xx7-xx7-xx8-xx8-xx8-xx8-xx|
a|-5-xx5-xx5-xx5-xx8-xx8-xx8-xx8-xx3-xx3-xx5-xx5-xx8-xx8-xx8-xx8-xx|
e|-3-xx3-xx3-xx3-xx6-xx6-xx6-xx6-xx1-xx1---------xx6-xx6-xx6-xx6-xx|
Guitar 2
e|-----------------------------------------------------------------|
b|-3---3---3---3---3---3---3---3---6---6---3---3---3---3---3---3---|
g|-3---3---3---3---3---3---3---3---5---5---2---2---3---3---3---3---|
d|-5---5---5---5---3---3---3---3---7---7---3---3---3---3---3---3---|
a|-----------------------------------------------------------------|
e|-----------------------------------------------------------------|

Guitar 1
   Gm              Bb              Dm      Am      Gm
e|-----------------------------------------------------------------|
b|-----------------------------------------------------------------|
g|-------------------------------xx7-xx7---------------------------|
d|-5-xx5-xx5-xx5-xx8-xx8-xx8-xx8-xx7-xx7-xx7-xx7-xx5-xx5-xx5-xx5-xx|
a|-5-xx5-xx5-xx5-xx8-xx8-xx8-xx8-xx5-xx5-xx7-xx7-xx5-xx5-xx5-xx5-xx|
e|-3-xx3-xx3-xx3-xx6-xx6-xx6-xx6---------xx5-xx5-xx3-xx3-xx3-xx3-xx|
Guitar 2
e|-----------------------------------------------------------------|
b|-3---3---3---3---3---3---3---3---6---6---5---5---3---3---3---3---|
g|-3---3---3---3---3---3---3---3---7---7---5---5---3---3---3---3---|
d|-5---5---5---5---3---3---3---3---7---7---7---7---5---5---5---5---|
a|-----------------------------------------------------------------|
e|-----------------------------------------------------------------|

Guitar 1
   Gm
e|-----------------|
b|-----------------|
g|-----------------|
d|-5-xx5-xx5-xx5-xx|
a|-5-xx5-xx5-xx5-xx|
e|-3-xx3-xx3-xx3-xx|
Guitar 2
e|-----------------|
b|-3---3---3---3---|
g|-3---3---3---3---|
d|-5---5---5---5---|
a|-----------------|
e|-----------------|

Strings
   F               Bb      Gm
e|---------------------------------|
b|-1---------------3-------3-------|
g|-2---------------3-------3-------|
d|-3---------------3-------5-------|
a|---------------------------------|
e|---------------------------------|

Verse 2(1:17)

Keyboard
   Am/C            Cm/Eb             Gbmaj7          Fm
e|-8---------------8-------6-------|-6---------------5---------------|
b|-10--------------8---------------|-6---------------7---------------|
g|-9---------------8---------------|-6---------------6-------7-8-5---|
d|---------------------------------|---------------------------------|
a|---------------------------------|---------------------------------|
e|---------------------------------|---------------------------------|
   Gm7     Gbmaj7  Ab        Db      Fm       Bbm             Ab
e|-6-------6-------8-------|-13------16-------9---------------8------------|
b|-6-------6-------9-------|-14------18-------11--------------9------------|
g|-7-------6-------8-------|-13------17-------10--------------8------------|
d|-------------------------|-----------------------------------------------|
a|-------------------------|-----------------------------------------------|
e|-------------------------|-----------------------------------------------|

Chorus:(1:52)

Clean Guitar
   Gm              Bb                F           Dm          Bb
e|-3--33-----3-----6--66-----6-----|-8---8-8-----10--1010----6--66-----6---|
b|-3--33-----3-----6--66-----6-----|-10--1010----10--1010----6--66-----6---|
g|-3--33-----3-----7--77-----7-----|-10--1010----10--1010----7--77-----7---|
d|---------------------------------|---------------------------------------|
a|---------------------------------|---------------------------------------|
e|---------------------------------|---------------------------------------|

Clean Guitar
   Gm              Bb                Dm      Am      Gm
e|-3--33-----3-----6--66-----6-----|-5--55---5--55---3--33---3--3--33---3--|
b|-3--33-----3-----6--66-----6-----|-6--66---5--55---3--33---3--3--33---3--|
g|-3--33-----3-----7--77-----7-----|-7--77---5--55---3--33---3--3--33---3--|
d|---------------------------------|---------------------------------------|
a|---------------------------------|---------------------------------------|
e|---------------------------------|---------------------------------------|
Guitar(builds up)
e|---------------------------------|------------------------------10-------|
b|---------------------------------|------------------------------8--------|
g|---------------------------------|---------------------------------------|
d|---------------------------------|---------------------------------------|
a|---------------------------------|---------------------------------------|
e|---------------------------------|---------------------------------------|

same second half of chorus as above

Part 2(2:36)
Just basses until (2:55)

Synth strings
   Bb      Dm      Gm      Db      F
e|-10------8-------10------16------17------|
b|-11----------10--8-----------------------|
g|---------10--------------18------17------|
d|-----------------------------------------|
a|-----------------------------------------|
e|-----------------------------------------|

(3:06)
Strings
   Am            Gsus4      Dm         Csus4  C       Bb Bbm F
e|-8-------------8----------13---------13-----12------10-9-----------------|
b|-10------------8----------15---------13-----13------11-11--10------------|
g|-9-------------7----------14---------12-----12------10-10--10------------|
d|-----------------------------------------------------------10------------|
a|-------------------------------------------------------------------------|
e|-------------------------------------------------------------------------|

Repeat two more times.


Part 3:(4:23)

Voices(with echo)
   Eb                          Fm
e|-6---6---6---6---6---6(6)6(6)8-(8)-8-(8)--|
b|-8---8---8---8---8---8(8)8(8)9-(9)-9-(9)--|
g|-8---8---8---8---8---8(8)8(8)10(10)10(10)-|
d|------------------------------------------|
a|------------------------------------------|
e|------------------------------------------|
Keyboard
e|-6---------------6-----------8------------|
b|------------------------------------------|
g|------------------------------------------|
d|------------------------------------------|
a|------------------------------------------|
e|------------------------------------------|

Chimes
   Db             Eb               Fm                  Eb
e|----------------------------------------------------------------------|
b|-------------9---------------11--------------13--------------11-------|
g|---------10-------------1312-------------13--------------12-----------|
d|-----11-------------13---------------15--------------13----------13---|
a|-11-------------13---------------15-----------------------------------|
e|----------------------------------------------------------------------|
Voices
e|-----------------------------------------------119-8-6----------------|
b|-----------------------------------------------13119-8----------------|
g|-----------------------------------------------1312108----------------|
d|----------------------------------------------------------------------|
a|----------------------------------------------------------------------|
e|----------------------------------------------------------------------|

Part 4(4:53)
Again just basses and weird effects.





Comments


Popular Of Montreal tabs & chords
We Were Born The Mutants Again With Leafling Bass Tabs
Dustin Hoffman Does Not Resist Temptation To Eat The Bathtub Chords
Feminine Chords
Girl From NYC (Named Julia) Chords
Isnt It Nice Chords
Little Viola Hidden In The Orchestra Chords
Ghetto World Ukulele
Montreal Ukulele
Plastis Wafer Ukulele
Spoonful Of Sugar Ukulele


Song lyrics



↑ Back to top | Tablatures and chords are parodies/interpretations of the original songs. You may use it for private study, scholarship, research or language learning purposes only
© 2014 AZChords.com Contact us | Privacy policy | DMCA | Add/correct tabs | Request tabs | Top 50 tabs