» » »

Plastis Wafer Bass tabs (ver.1)

Artists:  A B C D E F G H I J K L M N O P Q R S T U V W X Y Z # 

Plastis Wafer Bass tabs (ver.1)

Of Montreal
Rating:
0/5 (0 votes)

Hard to play? Try these video lessons and learn fast.
                By of Montreal (Kevin Barnes)


----------------------------------

This is a very long song that is divided into four 'movements'. I noted down
 which part belongs to which movement, and more or less how the strumming
should go. Nevertheless, listen to the song to get the timing perfectly.

Brace yourselves, this is gonna be long.

----------------------------------

/ - Slide up
\ - Slide down
~ - Let ring
x - Mute note
h - Hammer on
p - Pull off

++++++++++++++++++++++++++++++++++++++++++++++++++++++++++++++
1ST MOVEMENT
++++++++++++++++++++++++++++++++++++++++++++++++++++++++++++++


(00:00)

--1-&-2-&-3-&-4-&-|1-&-2-&-3-&-4-&-|1-&-2-&-3-&-4-&-|1-&-2-&-3-&-4-&-|

G-6---6--------6h9p6---6---------6-|5---5---------7-|5---5-------5h7p5---|
D-------7---7-9---|------7---7-9---|------7---7-7---|------7---7---------|
A-----------------|----------------|----------------|--------------------|
E-----------------|----------------|----------------|--------------------|


--1-&-2-&-3-&-4-&-|1-&-2-&-3-&-4-&-|1-&-2-&-3-&-4-&-|1-&-2-&-3-&-4-&-|

G-3---3---------7-|3---3---------3-|2---2-------5-7-|-----------------|
D-------5---5-----|------5-----5---|------0---0-----|0---0-/-7-7-7----|
A-------------6---|----------6-----|----------------|-----------------|
E-----------------|----------------|----------------|-----------------|


--1--&--2--&--3--&--4--&--|1--&--2--&--3--&--4--&--|1--&--2--&--3--&--4--&--

G----------12-------12----|------------------------|------------------------|
D-------------------------|12----------------------|------------10----------|
A-14-------------13----13-|----13---10-------------|12----------------------|
E-------------------------|------------11----------|------------------------|


--1--&--2--&--3--&--4--&--|1--&--2--&--3--&--4--&--

G---------/15-------------|------------7-----------|
D-------------------15\---|------7-----------7-----|
A-13----------------------|5-----------------------|
E-------------------------|------------------------|


--1--&--2--&--3--&--4--&--|1--&--2--&---3--&--4--&--|

G-------------------------|--------12/(17)12--10----| DON'T STRUM THE NOTE BETWEEN THE BRACKETS
D-------------------------|-------------------------| JUST STRUM ON 12, SLIDE UP TO 17 AND THEN
A-10----10----10-10-10----|10----10-----------------| STRUM 12 AGAIN
E-------------------------|-------------------------|


--1--&--2--&--3--&--4--&--|1--&--2--&---3--&--4--&--|

G--------10p7----12-------|-10p7--------------------|
D-------------------------|-------------------------|
A-8-----------8-----------|------8------------------|
E-------------------------|-------------------------|


Chorus (00:33):


--1--&--2--&--3--&--4--&--|1--&--2--&---3--&--4--&--|

G----12----12----12----12-|---15----15-----15/---17-|
D-------------------------|-------------------------|
A-10----10----10----10----|13----13-----13/---15----|
E-------------------------|-------------------------|


--1--&--2--&--3--&--4--&--|1--&--2--&---3--&--4--&--|

G----10----10\---7-----7/-|---15----15-----15----14-|
D-------------------------|-------------------------|
A-8-----8\----5-----5/----|13----13-----13----12----|
E-------------------------|-------------------------|


--1--&--2--&--3--&--4--&--|1--&--2--&---3--&--4--&--|

G----12----12----12----12-|---15----15-----15\---10-|
D-------------------------|-------------------------|
A-10----10----10----10----|13----13-----13\---8-----|
E-------------------------|-------------------------|


--1--&--2--&--3--&--4--&--|1--&--2--&--3--&--4--&--|

G----7-----7/----14----14-|---12----12----12----12-|
D-------------------------|------------------------|
A-5-----5/----12----12----|10----10----10----10----|
E-------------------------|------------------------|


(Perhaps with distortion) (00:51)


--1--&--2--&--3--&--4--&--|1--&--2--&--3--&--4--&--|

G-------------------------|------------------7--10-|
D-5--5--5--5--5--5--5--5/-|8--8--8--8--8--10-------|
A-------------------------|------------------------|
E-------------------------|------------------------|


--1--&--2--&--3--&--4--&--|1--&--2--&--3--&--4--&--|

G-7--7--7--7\-------------|------------------------|
D-------------0--0--0--0/-|8--8--8--8--8--8--7--7--|
A-------------------------|------------------------|
E-------------------------|------------------------|


--1--&--2--&--3--&--4--&--|1--&--2--&--3--&--4--&--|

G-------------------------|------------------------|
D-5--5--5--5\-------------|------------------------|
A-------------------------|------------------5--8--|
E-------------3--3--3--3/-|6--6--6--6--6--8--------|


--1--&--2--&--3--&--4--&--|1--&--2--&--3--&--4--&--|1--&--2--&--3--&--4--&--|

G-------------------------|------------------------|------------------------|
D-------------------------|------------------------|------------------------|
A-5--5--5--5/-12-12-12-12-|10-10-10-10-10-10-10-10\|3--3--3--3--3--3--3--3--|
E-------------------------|------------------------|------------------------|



"Interlude" (I wanna give you that ooh la ooh lala) (1:10)


--1--&--2--&--3--&--4--&--|1--&--2--&--3--&--4--&--|1--&--2--&--3--&--4--&--|1--&--2--&-3-&-4-&-|

G-------------------------|------------------------|------------------------|-------------------|
D-------------------------|------------------------|------------------------|5~-----------------|
A-------------------------|------------------------|1~----------------------|-------------------|
E-1~----------------------|------------------------|------------------------|-------------------|



2nd Verse (1:17)

--1-&-2-&-3-&-4-&-|1-&-2-&-3-&-4-&-|1-&-2-&-3-&-4-&-|1-&-2-&-3-&-4-&-|

G-------5-----7\--|------------2---|3---------------|-----------------|
D-7---------------|3-----5---------|------5-----3---|1-----------1----|
A-----------------|----------------|----------------|------3----------|
E-----------------|----------------|----------------|-----------------|


--1-&-2-&-3-&-4-&-|1-&-2-&-3-&-4-&-|1-&-2-&-3-&-4-&-|1-&-2-&-3--&--4--&-|

G-----------------|------------6---|5---------------|--5---5/10-10-10\--|
D-4-----6-----8---|4-----6---------|------6---------|6---6--------------|
A-----------------|----------------|------------6---|-------------------|
E-----------------|----------------|----------------|-------------------|


--1--&--2--&--3--&--4--&--|1--&--2--&--3--&--4--&--|1--&--2--&--3--&--4--&--|

G----------12-------10----|------------------------|------------------------|
D-------------------------|11-------13-------8-----|10----8-----6-----------|
A-10----------------------|------------------------|------------------------|
E-------------------------|------------------------|------------------------|


--1--&--2--&--3--&--4--&--|1--&--2--&--3--&--4--&--|

G-------------------------|------5-----3-----8-----|
D-------------3-----------|3-----------------------|
A-4-----6-----------4-----|------------------------|
E-------------------------|------------------------|


--1--&--2--&--3--&--4--&--|1--&--2--&--3--&--4--&--|1--&--2--&--3--&--4--&--|1-&-2-&-3-&-4-&-|

G-10----------------------|10-----------10h12p10---|-------------8h10p8-----|----------------|
D----------8-----------8--|---------8--------------|6--------6--------------|6---------------|
A-------------------------|------------------------|------------------------|----------------|
E-------------------------|------------------------|------------------------|----------------|


Repeat Chorus (1:51)



"Interlude" (I wanna give you that ooh la ooh lala) (2:28)


--1--&--2--&--3--&--4--&--|1--&--2--&--3--&--4--&--|1--&--2--&--3--&--4--&--|1--&--2--&-3-&-4-&-|

G-------------------------|------------------------|------------------------|-------------------|
D-------------------------|------------------------|------------------------|5~-----------------|
A-------------------------|------------------------|1~----------------------|-------------------|
E-1~----------------------|---------------------1--|------------------------|-------------------|

+++++++++++++++++++++++++++++++++++++++++++++++++++++++++++++++
2ND MOVEMENT
+++++++++++++++++++++++++++++++++++++++++++++++++++++++++++++++

(Perhaps with delay?)

(2:35)

(You give me such a rush...)

--1-&-2-&-3-&-4-&-|1-&-2-&-3-&-4-&-|1-&-2-&-3-&-4-&-|1-&-2-&-3-&-4-&-|

G---------------5\|----------------|----------------|-----------------|
D-7-777-77-77-7---|----------------|----------------|8-888-88-88-8-8--|
A-----------------|3-333-33-33-3-3/|8-888-88-88-8-8-|-----------------|
E-----------------|----------------|----------------|-----------------|


--1-&-2-&-3-&-4-&-|1-&-2-&-3-&-4-&-|1-&-2-&-3-&-4-&-|1-&-2-&-3-&-4-&-|

G--------9-99X7---|----------3-5-7-|-------5-55-5---|-----------------|
D-7-777-7-------10|3-333-33-3------|--------------7-|--------7---7----|
A-----------------|----------------|3-333-3--------/|8-888-88--8---8--|
E-----------------|----------------|----------------|-----------------|


--1-&-2-&-3-&-4-&-|1-&-2-&-3-&-4-&-|1-&-2-&-3-&-4-&-|1-&-2-&-3-&-4-&-||1-&-2-&-3--&-4-&-

G-------------10\-|----------------|----7----7--7---|----6----6--6----|----10---10--10--|
D-8-8-8-8-8-8-----|3-3-3-3-3-3-3/--|5-55---5--5-----|-----------------|-----------------|
A-----------------|----------------|----------------|4-44---4--4---4/-|8-88---8---8-----|
E-----------------|----------------|----------------|-----------------|-----------------|



(You are such a ****ing star...) (3:06)

The notes between the brackets are only played live.

--1-&-2-&-3-&-4-&-|1-&-2-&-3-&-4-&-|1-&-2-&-3-&-4-&-|1-&-2-&-3-&-4--&--|

G-----------------|----------------|----------------|------------------|
D-----------------|----------------|----------------|------------------|
A-----------------|----------------|----------------|---------------3--|
E-5~--------------|----------------|3~--------------|----------3-3h5---|


--1-&-2-&-3-&-4-&-|1-&-2-&-3-&-4-&-|1-&-2-&-3-&-4-&-|1-&-2-&-3-&-4-&-|

G-----------------|------7-----5---|----------------|----------------|
D-----------------|---------5h7----|-----(5)--------|-----(3)--------|
A-5-----5---------|5---------------|3-------3-------|1-/-4-----------|
E---------5-------|----------------|----------------|--------1~------|

1-&-2-&-3-&-4-&-|1-&-2-&-3-&-4-&-|1-&-2-&-3-&-4-&-

----------------|----------------|----------------|
----------------|----------------|----------------|
----------------|----------------|----------------|
----------------|----------------|----------------|


--1-&-2-&-3-&-4-&-|1-&-2-&-3-&-4-&-|1-&-2-&-3-&-4-&-|1-&-2-&-3-&-4--&-|

G-----------------|----------------|----------------|-----------------|
D---------7-7-7---|----------------|--------5-5-5---|--------5--------|
A-----------------|----------7-7-7-|----------------|---------------3-|
E-5---------------|5---------------|3---------------|3-----3---3-3h5--|

--1-&-2-&-3-&-4-&-|1-&-2-&-3-&-4-&-|1-&-2-&-3-&-4-&-|1-&-2-&-3-&-4-&-|1-&-2-&-3-&-4-&-|

G-----------------|----------------|----------------|----------------|----------------|
D-----------------|------------5-7-|-----(5)--------|-----(3)--------|----------------|
A-5-----5---------|5---------7-----|3-------3-------|1-/-4-----------|----------------|
E---------5-------|----------------|----------------|--------1~-----/|13--------------|

--1-&-2-&-3-&-4-&-|1-&-2-&-3-&-4-&-

G-----------------|-----------------|
D-----------------|------------7-10-|
A-----------------|----------8------|
E-----------------|-----------------|

--1-&-2-&-3-&-4-&-|1-&-2-&-3-&-4--&-|1-&-2-&-3-&-4-&-|1-&-2-&-3-&-4--&-|

G-----------------|---------------7-|----------------|-----------------|
D---------7-7-7---|----------7-7h9--|5---------------|5-------5--------|
A-----------------|-----------------|----------------|---------------3-|
E-5---------------|5-------5--------|--------3-3-3---|----3-----3-3h5--|


--1-&-2-&-3-&-4-&-|1-&-2-&-3--&--4--&-|1-&-2-&-3-&-4-&-|1-&-2-&-3-&-4-&-|1-&-2-&-3-&-4-&-|

G-----------------|-------------------|----------------|----------------|----------------|
D-----------------|-------------------|-----(5)--------|-----(3)--------|----------------|
A-5---------------|5-----/-17-17-17-\-|3-------3-------|1-/-4---8~------|----------------|
E---------5-------|-------------------|----------------|----------------|----------------|



++++++++++++++++++++++++++++++++++++++++++++++++++++++
3RD MOVEMENT
++++++++++++++++++++++++++++++++++++++++++++++++++++++


There is a second base playing a few notes during this part, so instead of writing
two separate tabs for each one, I joined both tabs in one, so where it looks like
more than one string is strummed, that is actually when both basses go in, each one strumming
a different string.


(4:22)

--1-&-2-&-3-&-4-&-|1-&-2-&-3-&-4-&-|1-&-2-&-3-&-4-&-|1-&-2-&-3-&-4-&-|

G-----66666-------|----------6-----|----88888-----10|--8---------------|
D-----------4-4/8-|----x4/-8---86--|----------8-6/--|------------------|
A-4-4-------------|4-4-------------|6-6-------------|------------------|
E-----------------|----------------|----------------|------------------|


--1--&--2-----&-----3---&--4--&--|1--&--2--&--3--&--4--&--|

G-------10-10-10-10-10-----------|------10----12----13----|
D-----------------------10-8--10-|------------------------|
A-8--8---------------------------|------8-----10----11----|
E--------------------------------|------------------------|


--1--&--2-----&-----3--&--4--&--|1--&--2--&--3--&--4--&--|

G-------12-12-12-12-12----12\---|------15-15-13-13-12p10-|
D-------------------------------|13-13-13-13-11-11-10p8--|
A-10-10----------------10-------|------------------------|
E-------------------------------|------------------------|



++++++++++++++++++++++++++++++++++++++++++++++++++++
4TH MOVEMENT
++++++++++++++++++++++++++++++++++++++++++++++++++++

There are three basses playing during this part.

(4:53 - 7:11)

Bass 1:

--1--&--2--&--3--&--4--&--|1--&--2--&--3--&--4--&--|

G----10----10-8-----------|---10----10-8~---/13----|
D----------------10-------|---------------10-------|
A-------------------------|------------------------|
E-------------------------|------------------------|


Bass 2:

--1-&-2-&-3-&-4-&-|

G-----------------|
D-6--6--6---4---4-|
A-------------6---|
E-----------------| (x3)

For the fourth bar you can play these melodies...

--1-&-2-&-3-&-4-&-|    --1-&-2-&-3-&-4-&-|

G---------------4-|    G---4---4-5-6-5-4-|
D-6-------4-5-6---|    D-6---6-----------|
A---4-5-6---------|    A-----------------|
E-----------------| OR E-----------------|


... or make up your own.

Bass 3 (played live only):

--1--&--2--&--3--&--4--&--|1--&--2--&--3--&--4--&--|

G----8--------------------|---8--------------------|
D----------10-------------|---------10-8--8--8--10-|
A-------------------------|------------------------|
E-------------------------|------------------------|

Just play these until the end of the song.


Whew, that was fun.
            
Hard to play? Try these video lessons and learn fast. | Correct




comments powered by Disqus
↑ Back to top | Tablatures and chords are parodies/interpretations of the original songs. You may use it for private study, scholarship, research or language learning purposes only