» » »

At Night Trees Aren't Sleeping Tabs (ver.1)

Artists:  A B C D E F G H I J K L M N O P Q R S T U V W X Y Z # 

At Night Trees Aren't Sleeping Tabs (ver.1)

Of Montreal
Rating:
0/5 (0 votes)

Hard to play? Try these video lessons and learn fast.
                -------------------------------------------------------------------------------
                  At Night The Trees Aren't Sleeping - Of Montreal
-------------------------------------------------------------------------------

Tuning: Standard

You could play this with a capo on 1st fret if you pleased, but I will tab it in barre 
not too tough to transpose.


Intro                                                   upstroke
e|-------------------------------------------------------1--------------------|
B|-------------------------------------------------------3--------------------|
G|------7-------7--------3-------3--------3---------3----3--------------------|
D|--8-------7--------5-------3-------1---------0---------3--------------------|
A|-------------------------------------------------------1--------------------|
E|----------------------------------------------------------------------------|
    Every  thing is falling apart   yes       I         am

    Bb     F            Bb        F            Bb        F
e|--6--6---5--5--5--5---6--6--6---6--5--5--5---6--6--6---5--5--5--5----------|
B|--6--6---6--6--6--6---6--6--6---6--6--6--6---6--6--6---6--6--6--6----------|
G|--7--7---5--5--5--5---7--7--7---5--5--5--5---7--7--7---5--5--5--5----------|
D|--8--8---7--7--7--7---8--8--8---7--7--7--7---8--8--8---7--7--7--7----------|
A|--8--8---8--8--8--8---8--8--8---8--8--8--8---8--8--8---8--8--8--8----------|
E|--6--6----------------6--6--6----------------6--6--6-----------------------|

e|---------------------------------------------------------------------------|
B|---------------------------------------------------------------------------|
G|---------------------------------------------------------------------------|
D|--10-10-10-10--------------------------------------------------------------|
A|--8--8--8--8---8--8--8--8----8--8--8--8----8-8-8-8-------------------------|
E|---------------11-11-11-11---10-10-10-10---8-8-8-8-------------------------|
    watch    -   ing      me   watch         birds  watch

    Bb         F            Bb        F            Bb        F
e|--6--6--6----5--5--5--5---6--6--6---6--5--5--5---6--6--6---5--5--5--5------|
B|--6--6--6----6--6--6--6---6--6--6---6--6--6--6---6--6--6---6--6--6--6------|
G|--7--7--7----5--5--5--5---7--7--7---5--5--5--5---7--7--7---5--5--5--5------|
D|--8--8--8----7--7--7--7---8--8--8---7--7--7--7---8--8--8---7--7--7--7------|
A|--8--8--8----8--8--8--8---8--8--8---8--8--8--8---8--8--8---8--8--8--8------|
E|--6--6--6-----------------6--6--6----------------6--6--6-------------------|
   people

  A                 Dm
I wear my bowtie to bed,
            F               A        F     Bb    F
Because I'm waiting for the gorgeous young man
A             Dm
Hiding in the spaces.
     F              A        F     Bb
That darkness hides gorgeous young men.

Everything is falling apart, yes I am
Watching me watch birds watch people.

If we are only waiting here to die.
At least let me put my arms around you.
Why try to keep it from myself,
When it feels so good to sing about love?

Everything is falling apart, yes I am

*Let me know how this transcription makes you feel on the inside*

Northside G's, holdin it down like a fat kid's pasty
            
Hard to play? Try these video lessons and learn fast. | Correct




comments powered by Disqus
↑ Back to top | Tablatures and chords are parodies/interpretations of the original songs. You may use it for private study, scholarship, research or language learning purposes only