>
 >
An Eluardian Instance

An Eluardian Instance Guitar Tabs

Of Montreal - An Eluardian Instance chords, tabs, tablatures, lyrics

Guitar lessons | Add/correct | Request | Top 50 tabs Artists:  A B C D E F G H I J K L M N O P Q R S T U V W X Y Z 0-9

An Eluardian Instance Guitar Tabs – Of Montreal

CD, Sheet music, Poster

Do you like An Eluardian Instance? Share with your friends now
TabsTabs v2
C         F   G5
Am    C5  F          

         C
Does she know, you should know
                   F                                  G5
That I am not just searching for some first time high?
Am                               C5
I know it's all about perceptions
        F
And I accept you as my very first mover

C         F  G5
Am    C5  F
C         F  G5
Am    C5  F
C         F  G5
Am    C5  F

Dm7       G
Cmaj7     Fmaj7


Dm7               G
I remember riding bikes 
(I remember riding bikes) 
          Cmaj7
On Koster Island
         Fmaj7 
Plotting midnight raids
       Dm7
On the Swedish plum trees
G
 (That summer)
Cmaj7              Fmaj7
It was too cold to swim
Dm7                     G
So we climbed up on the rocky shore
            Cmaj7      Fmaj7
And freaked out on the mountain goats
              Dm7              G
But they were not impressed or scared of us
Cmaj7      Fmaj7   Dm7                  G
  Do you remember    our last summer as independents?
Cmaj7      Fmaj7   Dm7                  G
  Do you remember    our last summer as independents?
Cmaj7      Fmaj7   Dm7                  G
  Do you remember    our last summer as independents?
Cmaj7      Fmaj7   Dm7                  G
  Do you remember    our last summer as independents?
Cmaj7      Fmaj7
  Do you remember?

Dm        G
C         F

        Dm                   G
I was a foreigner when you appeared
         C              F
        Dm           G             C             F
I was a hater in the depths of an emotional hibernation
           Dm
You sat me down
            G              C                      F
We had some drinks and you told me all kinds of insanity
             Dm                  G
I asked your friend if you were available
    C                  F                              Dm
She answered, "No, but yes, oh well, oh well, yes and no"



Now I'm viewing my memory reel in reverse
Scrolling back to come to feel your weather then
Now I'm noting the Himmlers of our parabola 
To predict the points of thou-shalt-not-return


Bb     Bb
Eb     Gb  Fm

Bb
This inbreeding of ideas is intolerable
Bb
I wish David was here
Eb                   Gb        Fm
Can't take your persecution complex
        Bb                                            Bb
And I'm not going to absorb your stress output anymore
              Eb                           Gb               Fm            
Oh, don't you pimp out my heart, don't you pimp out my heart 






Intro(0:00)


Brass
   C                                  F                        Am
e|------------------------12-10--8-----------------12-10--8-----------|
b|-8--------------12--12--12-10--8---10--8-----12--12-10--8---10--8---|
g|-----9-----------------------------9------------------------9-------|
d|---------10----------------------------10-----------------------10--|
a|--------------------------------------------------------------------|
e|--------------------------------------------------------------------|

                  F                         C
e|---------12-10--8-------------------12-10-8--|
b|-12--12--12-10--8---10--8-------12--12-10-8--|
g|--------------------9------------------------|
d|------------------------10-------------------|
a|---------------------------------------------|
e|---------------------------------------------|


Electric GUitar
   C               F            G5 Am           C5   F               C
e|----0---0---0--0----1---1---1-------7---7---7---------1---1---1--1-0-|
b|----1---1---1--1----1---1---1-------7---7---7---------1---1---1--1-1-|
g|-0-00-000-000-00----2---2---2-------7---7---7---------2---2---2--2-0-|
d|-2-22-222-222-22-3-33-333-333-55-7-77-777-777-1010-3-33-333-333-33-2-|
a|-3-33-333-333-33-3-33-333-333-55-7-77-777-777-1010-3-33-333-333-33-3-|
e|-----------------1-11-111-111-33-5-55-555-555-8-8--1-11-111-111-11---|


Verse - only basses

Interlude (0:28)

PLayed three times. Fast piano on all three. Then first with other piano, second with brass, 
third with brass and other piano.

Piano(fast)
          <--------------------keep repeating this part---------------------->
e|-------|:------------------------------------------------------------------:|
b|-10h12h|:13-8h10h12--------------------------------------------------10h12h:|
g|-------|:-----------10h12h14-9h10h12-9h10h12-------------------------------:|
d|-------|:------------------------------------10h12h14-9h10h12-7h9h10-------:|
a|-------|:------------------------------------------------------------------:|
e|-------|:------------------------------------------------------------------:|


Piano
   C                        F
e|-----12----10----8---7-5----------------------------|
b|---13----12----10---8-6-5--5---6---8----10--12--13--|
g|--------------------------5---7---9---10--12--14----|
d|----------------------------------------------------|
a|----------------------------------------------------|
e|----------------------------------------------------|
   Am                       F
e|---12----10----8---7-5-3----------------------------|
b|-13----12----10---8-6-5-5--5---6---8----10--12--13--|
g|--------------------------5---7---9---10--12--14----|
d|----------------------------------------------------|
a|----------------------------------------------------|
e|----------------------------------------------------|


Brass
   C                                      F                       
e|-12-------12-------12-------12----12-15-8-------8-------8-------8-----8--10-|
b|-13----13-13----13-13----13-13-13-13-17-10---10-10---10-10---10-10-10-10-12-|
g|-12----14-12----14-12----14-12-14-12-16-9----10-9----10-9----10-9--10-9--10-|
d|-------14-------14-------14----14------------10------10------10----10-------|
a|----------------------------------------------------------------------------|
e|----------------------------------------------------------------------------|

   Am                                     F
e|-12-------12-------12-------12----12-15-8-------8-------8-------8-----8--10-|
b|-13----13-13----13-13----13-13-13-13-17-10---10-10---10-10---10-10-10-10-12-|
g|-12----14-12----14-12----14-12-14-12-16-9----10-9----10-9----10-9--10-9--10-|
d|-------14-------14-------14----14------------10------10------10----10-------|
a|----------------------------------------------------------------------------|
e|----------------------------------------------------------------------------|





New Section(intro):(1:11)

Piano
   Dm7               G               Cmaj7             Fmaj7
e|-------------------------------------------7-7-8--8-------------------|
b|-10-10-8-8-5-5-6-6---------------------8-8-8-8-10-10-8-8-6-6-5-5-6-6--|
g|-10-10-9-9-5-5-7-7-7-7-5-5-4-4---------9-9-----------9-9-7-7-5-5-7-7--|
d|-------------------9-9-7-7-5-5----------------------------------------|
a|----------------------------------------------------------------------|
e|----------------------------------------------------------------------|
Keyboard
e|-5-----------------3---------------7-----------7----5-----------------|
b|-6-----------------3---------------8-----------8----5-----------------|
g|-5-----------------4---------------9-----------9----5-----------------|
d|-------------------5--------------------------------3-----------------|
a|-5--------------------------------------------------------------------|
e|-----------------------------------8-----------8----------------------|


Verse 1

Keyboard
e|-5-----------------3---------------7-----------7----5-------------|
b|-6-----------------3---------------8-----------8----5-------------|
g|-5-----------------4---------------9-----------9----5-------------|
d|-------------------5--------------------------------3-------------|
a|-5----------------------------------------------------------------|
e|-----------------------------------8-----------8------------------|
Repeat this until the little change:


Keyboard(1:45)
        (with echo)
e|--~5-|-5----(5)----------3--(3)----------7--(7)------7----5-----------|
b|-----|-6----(6)----------3--(3)----------8--(8)------8----5-----------|
g|-----|-5----(5)----------4--(4)----------9--(9)------9----5-----------|
d|-----|-------------------5--(5)---------------------------3-----------|
a|-----|-5----(5)-------------------------------------------------------|
e|-----|-----------------------------------8--(8)------8----------------|

(2:07)
Guitar
   Dm7              G                Cmaj7            Fmaj7
e|-1515151515151515-1515151515151515-1515151515151515-15----------|
b|-1515151515151515-1515151515151515-1515151515151515-15----------|
g|----------------------------------------------------------------|
d|----------------------------------------------------------------|
a|----------------------------------------------------------------|
e|----------------------------------------------------------------|


Little solo:(2:15)
Guitar
e|-----12----10--13-----15-15--15--12----15-17----12--------20-----|
b|-------13----10--12----------------13-------15----13--------18---|
g|---10----12--------------------------12-------------12-14--------|
d|-----------------------------------------------------------------|
a|-----------------------------------------------------------------|
e|-----------------------------------------------------------------|

Verse 2:(2:22)

Piano(played over little solo as well)
   Dm              G               C               F
e|-10--10--10--10--15--15--15--15--15--15--15--15--13--13--13--13---|
b|-10--10--10--10--15--15--15--15--17--17--17--17--13--13--13--13---|
g|-10--10--10--10--16--16--16--16--17--17--17--17--14--14--14--14---|
d|---12--12--12--12--17--17--17--17--17--17--17--17--15--15--15--15-|
a|------------------------------------------------------------------|
e|------------------------------------------------------------------|


Double Guitar Solo 1:(2:50)

Piano and other instruments stop.


Guitar 1
   Dm                 G                       C                      F
e|-------------------------------15s17-15-------17-15----15----------------------------------|
b|----------------13----13-15-17----------17----------17----17-15-17-15-13-13h15p13----------|
g|----------12s14-------------------------------------------------------------------14s12----|
d|-10-12s14-------------------------------------------------------------------------------14-|
a|-------------------------------------------------------------------------------------------|
e|-------------------------------------------------------------------------------------------|
Guitar 2
e|----------------------------8--10s12-10-8-----12-10-8--10-8-----8--------------------------|
b|----------------8-----8--10----------------------------------10----10-8--8-h10p8-----------|
g|--------5-7-s9--------------------------------------------------------------------9-s7--5--|
d|-5--7--------------------------------------------------------------------------------------|
a|-------------------------------------------------------------------------------------------|
e|-------------------------------------------------------------------------------------------|

Verse 3:(2:57)

Piano from above plus this

Guitar
   Dm       G        C        F        Dm       G        C        F
e|---5--------3--------3--------1--------5--------3--------3--------1------|
b|--6--------3--------5--------1--------6--------3--------5--------1-------|
g|-7--------4--------5--------2--------7--------4--------5--------2--------|
d|-------------------------------------------------------------------------|
a|-------------------------------------------------------------------------|
e|-------------------------------------------------------------------------|


Double GUitar Solo 2(3:26)

Piano continues, but broken guitar chords stop.

Guitar 1
   Dm                   G                      C                      F
e|--------------------------------15s17-15-------17-15----15----------------------------------|
b|----------------13s15--13-15-17----------17----------17----17-15-17-15-13-13h15p13----------|
g|----------12s14--------------------------------------------------------------------14s12----|
d|-10-12s14--------------------------------------------------------------------------------14-|
a|--------------------------------------------------------------------------------------------|
e|--------------------------------------------------------------------------------------------|
Guitar 2
e|-----------------------------8--10s12-10-8-----12-10-8--10-8-----8--------------------------|
b|----------------8-s10--8--10----------------------------------10----10-8--8-h10p8-----------|
g|--------5-7-s9---------------------------------------------------------------------9-s7--5--|
d|-5--7---------------------------------------------------------------------------------------|
a|--------------------------------------------------------------------------------------------|
e|--------------------------------------------------------------------------------------------|


Guitar 1
   Dm                   G                      C                    F
e|--------------------------------15s17-15-------17-15----15----------17-15----15---------|
b|----------------13s15--13-15-17----------17----------17----17-15----------17----17-15~--|
g|----------12s14-------------------------------------------------------------------------|
d|-10-12s14-------------------------------------------------------------------------------|
a|----------------------------------------------------------------------------------------|
e|----------------------------------------------------------------------------------------|
Guitar 2
e|-----------------------------8--10s12-10-8-----12-10-8--10-8--------12-10-8--10-8-------|
b|----------------8-s10--8--10----------------------------------10-------------------10~--|
g|--------5-7-s9--------------------------------------------------------------------------|
d|-5--7-----------------------------------------------------------------------------------|
a|----------------------------------------------------------------------------------------|
e|----------------------------------------------------------------------------------------|

Broken guitar chords come back, piano continues.


Last Section:(3:54)

Guitar(distorted)
   Bb                                          Eb       Gb     Fm
e|---10-10------10-10------10-10------10-10------3-3------2-2---4-4---|
b|---11-11------11-11------11-11------11-11------4-4------2-2---6-6---|
g|---10-10------10-10------10-10------10-10------3-3------3-3---5-5---|
d|--------------------------------------------------------------------|
a|--------------------------------------------------------------------|
e|--------------------------------------------------------------------|

Repeat till end.





Comments


Popular Of Montreal tabs & chords
Wraith Pinned To The Mist And Other Games 3 Bass Tabs
A Sentence Of Sorts In Kongsvinger Chords
Fugitive Air Chords
Requiem For Omm 2 Chords
Your Magic Is Working Chords
Faberge Falls For Shuggie Tabs
Tim Wish You Were Born A Girl Tabs
Dirty Dustin Hoffman Needs A Bath Ukulele
Dustin Hoffmans Children Dont Enter The Bathroom Ukulele
Ghetto World Ukulele


Song lyrics



↑ Back to top | Tablatures and chords are parodies/interpretations of the original songs. You may use it for private study, scholarship, research or language learning purposes only
© 2014 AZChords.com Contact us | Privacy policy | DMCA | Add/correct tabs | Request tabs | Top 50 tabs