» » »

Of Montreal, Forecast Fascist Future Tabs (ver.1)

Artists:  A B C D E F G H I J K L M N O P Q R S T U V W X Y Z # 

Forecast Fascist Future Tabs (ver.1)

Of Montreal Tabs
Rating:
5/5 (3 votes)
Hard to play? Try these video lessons and learn fast.
                Capo on first fret

A      D  E
A      F 
C      F     A  

A      D  E
A      F 
C      F     A 

Am
The language of the frost 
     Bb                 A7        Gm
Lobs dead balloons over ruins today
        F#m Bm           D 
In view of  wan wordless crowds 
     E                          Dmaj7 
That chase waifs to spires with fiery plumes
C#m7                F      Bm             A           E    
And incite the firmament’s portrait of "A Drowning in Styx"
           F
That gives impotents kicks

A                   D             
Boredom murders the heart of our age
E     A                          F
While sanguinary creeps take the stage
C                     F                         A
Boredom strangles the life from the printed page


Masking vapor trails from Mercury 
For a killer on Umbria who crippled birch mares 
Now briars replace their old cotton limbs
Who will tell? I mean, would it make a difference?
Look, metal flower petal 
         F                      G         
Tears do not even appear in the Myopic Mirror

A                   D             
Boredom murders the heart of our age
E     A                          F
While sanguinary creeps take the stage
C                     F                         
Boredom strangles the life from the printed page

A

The moon was sagging in the sky
     D
As I held her face to mine
        C
All our thoughts were coming in so clear
           F             D 
Beyond the Myopic Mirror
        A                            D
We were darting from the place where we just couldn’t fit
    C                                        F                D
Far away from all the violence safely flying in our own orbit

Bb A
Bb A

         F
Why do I always have to tell you
    G
"Forget about the precient signs”?
   F
Forget about the life we knew
       n.c.
May we never be stripped of anything we love 
                                G
May we grow so gentle, never go mental

G

May we never go, go mental
May we always stay, stay gentle

   Bb      C       D
Gentle, gentle, gentle!

A                   D             
Boredom murders the heart of our age
E     A                          F
While sanguinary creeps take the stage
C                     F                         A
Boredom strangles the life from the printed page

D                       F
Oh, what was my number, oh?
                              D
(114395?) What was my number, oh? 
I don’t care!
F       G                 G# A
Number, no, no, no, no, no 



Intro:(0:00)
Acoustic Guitar
   A                D             E   A             F
e|-55|5---5---5-5---5---5---5-5---7-|-5---5--55-5---1---1---1-1---1---|
b|-55|5---5---5-5---7---7---7-7---9-|-5---5--55-5---1---1---1-1---1---|
g|-66|6---6---6-6---7---7---7-7---9-|-6---6--66-6---2---2---2-2---2---|
d|-77|7---7---7-7---7---7---7-7---9-|-7---7--77-7---3---3---3-3---3---|
a|-77|7---7---7-7---5---5---5-5---7-|-7---7--77-7---3---3---3-3---3---|
e|-55|5---5---5-5-------------------|-5---5--55-5---1---1---1-1---1---|
Guitar 1
e|---|------------------------------|---------------------------------|
b|---|------------------------------|---------------------------------|
g|---|------------------------------|---------------------------------|
d|---|------------------------------|---------------------------------|
a|---|----------------------------7/|-0-------------------------------|
e|---|------------------------------|---------------1----------------/|
Guitar 2
e|---|------------------------------|---------------------------------|
b|---|------------------------------|---------------------------------|
g|---|------------------------------|---------------5-----------------|
d|---|------------------------------|---------------------------------|
a|---|------------------------------|---------------------------------|
e|---|------------------------------|---------------------------------|

Acoustic Guitar
   C             F                   A
e|-3---3---3-3---1---1---1-1---1---|-5---5---5-5---5---5---5-5-5-5---|
b|-5---5---5-5---1---1---1-1---1---|-5---5---5-5---5---5---5-5-5-5---|
g|-5---5---5-5---2---2---2-2---2---|-6---6---6-6---6---6---6-6-6-6---|
d|-5---5---5-5---3---3---3-3---3---|-7---7---7-7---7---7---7-7-7-7---|
a|-3---3---3-3---3---3---3-3---3---|-7---7---7-7---7---7---7-7-7-7---|
e|---------------1---1---1-1---1---|-5---5---5-5---5---5---5-5-5-5---|
Guitar 1
e|---------------------------------|---------------------------------|
b|---------------------------------|---------------------------------|
g|---------------------------------|---------------------------------|
d|---------------------------------|---------------------------------|
a|---------------------------------|---------------------------------|
e|-8------------/1----------------/|-5-------------------------------|
Guitar 2
e|---------------------------------|---------------------------------|
b|---------------------------------|---------------------------------|
g|--------------/5-----------2/5---|-6-------------------------------|
d|-5---------2/5-------------------|---------------------------------|
a|---------------------------------|---------------------------------|
e|---------------------------------|---------------------------------|

(0:15)
Acoustic guitar chords same as the first time.

Guitar 1
  A           D  E    A           F         C        F           A
e|5\4---------5---/--|5\3---------3--------|8--/10\8------------|----------|
b|---5\3-2/5---------|---5\3-2/5-----------|---------10--8/10\8-|----------|
g|-------------------|---------------------|--------------------|9/10\9----|
d|-------------------|---------------------|--------------------|----------|
a|-------------------|---------------------|--------------------|----------|
e|-------------------|---------------------|--------------------|----------|
Guitar 2
e|-------------------|---------------8-----|--------------------|----------|
b|-------------------|-----------------108-|--------------------|----------|
g|-------------------|---------------------|9-------------------|----------|
d|-------------------|---------------------|--------------------|----------|
a|-------------------|---------------------|--------------------|----------|
e|-------------------|---------------------|--------------------|----------|
Guitar 3
e|-------------------|---------------------|--------------------|----------|
b|-------------------|---------------------|--------------------|----------|
g|-------------------|---------------------|-----------/5---2/5-|6---------|
d|-------------------|---------------------|5-------2/5---------|----------|
a|-------------------|---------------------|--------------------|----------|
e|-------------------|---------------------|--------------------|----------|
Guitar 4
e|-------------------|---------------------|--------------------|----------|
b|-------------------|---------------------|--------------------|----------|
g|-------------------|---------------------|--------------------|----------|
d|-------------------|---------------------|--------------------|----------|
a|-------------------|---------------------|--------------------|----------|
e|-------------------|---------------------|3--------8----------|0h1p0--/5-|

Verse:(0:30)

Clean electric guitar 
   Am              Bb              A7              Gm          F#m
e|-0-0-0-0-0-0-0-0-1-1-1-1-1-1-1-1-3-3-3-3-3-3-3-3-3-3-3-3-3---2---|
b|-1-1-1-1-1-1-1-1-3-3-3-3-3-3-3-3-2-2-2-2-2-2-2-2-3-3-3-3-3---2---|
g|-2-2-2-2-2-2-2-2-3-3-3-3-3-3-3-3-2-2-2-2-2-2-2-2-3-3-3-3-3---2---|
d|-------------------------------------------------5-5-5-5-5---4---|
a|-----------------------------------------------------------------|
e|-----------------------------------------------------------------|
   Bm      D       E               Dmaj7
e|-2-2-2-2/5-5-5-5-0-0-0-0-0-0-0-0---------9---5-----------9---5---|
b|-3-3-3-3/7-7-7-7-0-0-0-0-0-0-0-0-7-7---7-----7---7-7---7-----7---|
g|-4-4-4-4/7-7-7-7-1-1-1-1-1-1-1-1-6-6---6---------6-6---6---------|
d|---------------------------------7-7---7---------7-7---7---------|
a|-----------------------------------------------------------------|
e|-----------------------------------------------------------------|
   C#m7        F   Bm      A       E               F
e|---------7---8---2-2-2-2-0-0-0-0-0-0-0-0-0-0-0-0-1-1-1-1-1-1-1-1-|
b|-5-5---5-----10--3-3-3-3-2-2-2-2-0-0-0-0-0-0-0-0-1-1-1-1-1-1-1-1-|
g|-4-4---4-----10--4-4-4-4-2-2-2-2-1-1-1-1-1-1-1-1-2-2-2-2-2-2-2-2-|
d|-6-6---6---------4-4-4-4-2-2-2-2-2-2-2-2-2-2-2-2-3-3-3-3-3-3-3-3-|
a|-----------------------------------------------------------------|
e|-----------------------------------------------------------------|


Chorus:(0:52)
Acoustic guitar from intro with this small riff on electric guitar on the
last A.

Electric guitar
   A
e|---------------------------------|
b|---------------------------------|
g|---------------------------------|
d|---------------------------------|
a|---------------------------------|
e|-5--------------\0------/5-------|


Verse:(1:07)
Same as above except for stay on the last F for twice as long and then go
to this

Clean electric guitar
   G
e|-3-3-3-3-3-3-3-3-|
b|-3-3-3-3-3-3-3-3-|
g|-4-4-4-4-4-4-4-4-|
d|-5-5-5-5-5-5-5-5-|
a|-----------------|
e|-----------------|


Chorus(1:33)
Same as above but without the last A (including the riff). Instead go 
straight to the bridge.

Bridge:(1:44)
The keyboard is probably just single notes with tremolo so you could play 
them as single notes and just hold them if you want.

Electric Guitar(palm-muted but gradually de-mute for the last few)
   A       A                               D
e|------||--------------------------------|--------------------------------|
b|------||--------------------------------|--------------------------------|
g|   x64||--------------------------------|--------------------------------|
d|------||7-7-----------------------------|--------------------------------|
a|-7----||7-7-----------------------------|--------------------------------|
e|-5----||5-5-----------------------------|--------------------------------|
Keyboard
e|------||--------------------------------|--------------------------------|
b|------||--------------------------------|--------------------------------|
g|------||--------------------------------|--------------------------------|
d|------||77777777777777777777777777777777|--------------------------------|
a|------||--------------------------------|55555555555555555555555555555555|
e|------||--------------------------------|--------------------------------|

Keyboard
  C                                F               D
e|--------------------------------|--------------------------------|
b|--------------------------------|--------------------------------|
g|--------------------------------|--------------------------------|
d|--------------------------------|--------------------------------|
a|33333333333333333333333333333333|88888888888888885555555555555555|
e|--------------------------------|--------------------------------|
  A                                D
e|--------------------------------|--------------------------------|
b|--------------------------------|--------------------------------|
g|--------------------------------|--------------------------------|
d|77777777777777777777777777777777|--------------------------------|
a|--------------------------------|55555555555555555555555555555555|
e|--------------------------------|--------------------------------|

Keyboard
  C                                F               D             Bb
e|--------------------------------|--------------------------------|
b|--------------------------------|--------------------------------|
g|--------------------------------|--------------------------------|
d|--------------------------------|--------------------------------|
a|33333333333333333333333333333333|88888888888888885555555555555555|
e|--------------------------------|--------------------------------|
Guitar 1
e|--------------------------------|--------------------------------|
b|--------------------------------|--------------------------------|
g|--------------------------------|--------------------------------|
d|--------------------------------|------------------------------8-|
a|--------------------------------|------------------------------8-|
e|--------------------------------|------------------------------6-|

Guitar 1
  A                             Bb A         
e|--------------------------------|--------------------------------|
b|--------------------------------|--------------------------------|
g|--------------------------------|--------------------------------|
d|7-----------------------------8-|7---------------7-7-7-7-7-7-7-7-|
a|7-----------------------------8-|7---------------7-7-7-7-7-7-7-7-|
e|5-----------------------------6-|5---------------5-5-5-5-5-5-5-5-|
Guitar 2
e|--------------------------------|----------------8b9-9-9-9-9-9-9-|
b|--------------------------------|--------------------------------|
g|--------------------------------|--------------------------------|
d|--------------------------------|--------------------------------|
a|--------------------------------|--------------------------------|
e|--------------------------------|--------------------------------|
Keyboard
e|--------------------------------|--------------------------------|
b|--------------------------------|--------------------------------|
g|--------------------------------|--------------------------------|
d|77777777777777777777777777777777|77777777777777777777777777777777|
a|--------------------------------|--------------------------------|
e|--------------------------------|--------------------------------|

(2:36)
Guitar 1
   F                                 G
e|-1-1-1-1-1-1-1-1-1-1-1-1-1-1-1-1-|-3-3-3-3-3-3-3-3-3-3-3-3-3-3-3-3-|
b|-1-1-1-1-1-1-1-1-1-1-1-1-1-1-1-1-|-3-3-3-3-3-3-3-3-3-3-3-3-3-3-3-3-|
g|-2-2-2-2-2-2-2-2-2-2-2-2-2-2-2-2-|-4-4-4-4-4-4-4-4-4-4-4-4-4-4-4-4-|
d|-3-3-3-3-3-3-3-3-3-3-3-3-3-3-3-3-|-5-5-5-5-5-5-5-5-5-5-5-5-5-5-5-5-|
a|---------------------------------|---------------------------------|
e|---------------------------------|---------------------------------|
Guitar 2
e|-5---5---5---5---5---5---5---5---|-7---7---7---7---7---7---7---7---|
b|---6---6---6---6---6---6---6---6-|---8---8---8---8---8---8---8---8-|
g|---------------------------------|---------------------------------|
d|---------------------------------|---------------------------------|
a|---------------------------------|---------------------------------|
e|---------------------------------|---------------------------------|

Guitar 1
   F
e|-1-1-1-1-1-1-1-1-1-1-1-1-1-1-1-1-|
b|-1-1-1-1-1-1-1-1-1-1-1-1-1-1-1-1-|
g|-2-2-2-2-2-2-2-2-2-2-2-2-2-2-2-2-|
d|-3-3-3-3-3-3-3-3-3-3-3-3-3-3-3-3-|
a|---------------------------------|
e|---------------------------------|
Guitar 2
e|-5---5---5---5---5---5---5---5---|
b|---6---6---6---6---6---6---6---6-|
g|---------------------------------|
d|---------------------------------|
a|---------------------------------|
e|---------------------------------|




(2:54)
I've tabbed out the basses here too. This pattern repeats a lot.

Guitar
   G
e|---|------3-------------------------------3-------------------------|
b|---|--3-----------------------3-0-----3-----------------------3-0---|
g|---|----4-----------------0-2-----------4-----------------0-2-------|
d|-3/|5-------3/5-------------------3/5-------3/5-------------------3/|
a|---|----------------------------------------------------------------|
e|---|----------------------------------------------------------------|
Guitar
e|---|----------------------------------------------------------------|
b|---|----------------------------------------------------------------|
g|---|----------------------------------------------------------------|
d|---|----------------------2-3-2-3-------------------------2-3-2-3---|
a|---|------3-5-3-5-------------------------3-5-3-5-------------------|
e|---|----------------------------------------------------------------|
Bass
g|-17|16------16------16------19----1716------16------16------19----17|
d|---|--17--17--17--17--17--17--19------17--17--17--17--17--17--19----|
a|---|----------------------------------------------------------------|
e|---|----------------------------------------------------------------|
Bass
g|---|----------------------------------------------------2-2-3-3-5-5-|
d|---|5-5-3-3-------------------------5-5-3-3-----3-3-5-5-------------|
a|---|--------5-5-3-3-------------3-3---------5-5---------------------|
e|---|----------------3-3-5-5-6-6-------------------------------------|


(3:37)
Acoustic guitar
   Bb                                C
e|-6---6-6-6-6-6-6-6-6-6-6-6-6-6-6-|-8-8-8-8-8-8-8-8-8-8-8-8-8-8-8-8--|
b|-6---6-6-6-6-6-6-6-6-6-6-6-6-6-6-|-8-8-8-8-8-8-8-8-8-8-8-8-8-8-8-8--|
g|-7---7-7-7-7-7-7-7-7-7-7-7-7-7-7-|-9-9-9-9-9-9-9-9-9-9-9-9-9-9-9-9--|
d|-8---8-8-8-8-8-8-8-8-8-8-8-8-8-8-|-10101010101010101010101010101010-|
a|-8---8-8-8-8-8-8-8-8-8-8-8-8-8-8-|-10101010101010101010101010101010-|
e|-6---6-6-6-6-6-6-6-6-6-6-6-6-6-6-|-8-8-8-8-8-8-8-8-8-8-8-8-8-8-8-8--|
Electric guitar
e|---6-------6-------6-------6-----|---8-------8-------8-------8------|
b|-6-----6-------6-------6-----6--/|-8-----8-------8-------8-----8---/|
g|---------------------------------|----------------------------------|
d|---------------------------------|----------------------------------|
a|---------------------------------|----------------------------------|
e|---------------------------------|----------------------------------|

Acoustic guitar
   D
e|-10101010101010101010101010101010-|
b|-10101010101010101010101010101010-|
g|-11111111111111111111111111111111-|
d|-12121212121212121212121212121212-|
a|-12121212121212121212121212121212-|
e|-10101010101010101010101010101010-|
Electric guitar
e|---10------10------10--------10---|
b|-10----10------10------10---------|
g|----------------------------------|
d|----------------------------------|
a|----------------------------------|
e|----------------------------------|

Chorus(3:48)
Acoustic guitar same as above but don't go to the last A. Instead, go to:

(3:59)
Acoustic guitar
   D                                 F
e|-5---5-5---5-5-5---5-5-5---5-5-5-|-1---1-1---1-1-1---1-1-1---1-1-1-|
b|-7---7-7---7-7-7---7-7-7---7-7-7-|-1---1-1---1-1-1---1-1-1---1-1-1-|
g|-7---7-7---7-7-7---7-7-7---7-7-7-|-2---2-2---2-2-2---2-2-2---2-2-2-|
d|-7---7-7---7-7-7---7-7-7---7-7-7-|-3---3-3---3-3-3---3-3-3---3-3-3-|
a|-5---5-5---5-5-5---5-5-5---5-5-5-|-3---3-3---3-3-3---3-3-3---3-3-3-|
e|---------------------------------|-1---1-1---1-1-1---1-1-1---1-1-1-|
Electric guitar
e|---5---5---5---5---5---5---5-----|---------------------------------|
b|-7---7---7---7---7---7---7---7---|---6---6---6---6---6---6---6---6-|
g|---------------------------------|-5---5---5---5---5---5---5---5---|
d|---------------------------------|---------------------------------|
a|---------------------------------|---------------------------------|
e|---------------------------------|---------------------------------|

Acoustic guitar
   D                                 F               G           G#    A
e|-5---5-5---5-5-5---5-5-5---5-5-5-|-1---1-1-1-1-1-1-3-3-3-3-3---4---|-5--|
b|-7---7-7---7-7-7---7-7-7---7-7-7-|-1---1-1-1-1-1-1-3-3-3-3-3---4---|-5--|
g|-7---7-7---7-7-7---7-7-7---7-7-7-|-2---2-2-2-2-2-2-4-4-4-4-4---5---|-6--|
d|-7---7-7---7-7-7---7-7-7---7-7-7-|-3---3-3-3-3-3-3-5-5-5-5-5---6---|-7--|
a|-5---5-5---5-5-5---5-5-5---5-5-5-|-3---3-3-3-3-3-3-5-5-5-5-5---6---|-7--|
e|---------------------------------|-1---1-1-1-1-1-1-3-3-3-3-3---4---|-5--|
Electric guitar
e|---5---5---5---5---5---5---5---5-|---8---8---8---8---10--10--10--11|-12-|
b|-7---7---7---7---7---7---7---7---|-10--10--10--10--12--12--12--13--|-14-|
g|---------------------------------|---------------------------------|----|
d|---------------------------------|---------------------------------|----|
a|---------------------------------|---------------------------------|----|
e|---------------------------------|---------------------------------|----|
            

comments powered by Disqus
↑ Back to top | Of Montreal Tabs for Forecast Fascist Future. Lyrics for acoustic guitar and electric guitar. Tablatures and chords are parodies/interpretations of the original songs. You may use it for private study, scholarship, research or language learning purposes only