» » »

Of Montreal, An Eluardian Instance Tabs (ver.2)

Artists:  A B C D E F G H I J K L M N O P Q R S T U V W X Y Z # 

An Eluardian Instance Tabs (ver.2)

Of Montreal Tabs
Rating:
5/5 (5 votes)
An Eluardian Instance lessons Tabs too difficult? Try these video lessons and learn fast
                ----------------------------------------------------------------------------
                             A Eluardian Instance by Of Montreal
----------------------------------------------------------------------------

Tuning: Standard

*Note: There aren't really any definitive choruses or bridges. I tryed to lay it out as 
as possible.


Verse one (before horn solo) – C F Am F

“You should know you should know that I…”

Verse two (rest of song except last “movement” – Dm G C F

“I remember riding bikes on coaster island”
"I was a foreigner when you arrived"
"Now I'm viewing my memory reel in reverse"


Last Movement (key & tempo change at end of song) – A# D# F# G#

“this inbreeding of ideas is intolerable, I wish david was here”


FIRST SOLO – after, “Our last summer as independents, do you remember?”

e|--10--12--13--15-15-15--12----15--17----12---------13---------------------|
B|13--15--15--12------------13--------15----13-----13-----------------------|
G|----------------------------12--------------12-14-------------------------|
D|--------------------------------------------------------------------------|
A|--------------------------------------------------------------------------|
E|--------------------------------------------------------------------------|

SECOND SOLO – after, “She answered no but yes, oh well, oh well, yes and no.”
*note: this is only one half of a harmony of two solos played on the same beats.

e|--------------------12-15/17—15p12—17-15-12-15-12--12-----------------------|
B|-----8-10/13---13-15-----------------------------15—15-13-13h15p13----------|
G|5-7/9--------------------------------------------------------------14-12----|
D|------------------------------------------------------------------------14--|
A|----------------------------------------------------------------------------|
E|----------------------------------------------------------------------------|

| /  slide up
| \  slide down
| h  hammer-on
| p  pull-off
| ~  vibrato
| +  harmonic
| x  Mute note
===============================================================================
            
Submit corrections

comments powered by Disqus
↑ Back to top | Of Montreal Tabs for An Eluardian Instance. Lyrics for acoustic guitar and electric guitar. Tablatures and chords are parodies/interpretations of the original songs. You may use it for private study, scholarship, research or language learning purposes only