» » »

Of Mice And Men, Repeating Apologies Tabs (ver.1)

Artists:  A B C D E F G H I J K L M N O P Q R S T U V W X Y Z # 

Repeating Apologies Tabs (ver.1)

Of Mice And Men Tabs
 Rating:
4.3/5 (6 votes)
Repeating Apologies lessons Tabs too difficult? Try these video lessons and learn fast
1
                -------------------------------------------------------------
             Repeating Apologies - Of Mice & Men
-------------------------------------------------------------

Tuning: Drop C

Intro
D|-----------------------------------------------------|
A|-----------------------------------------------------|
F|---------4~--------2~--------4~--------2~------------|
C|------2~--------0~--------2~--------0~---------------|
G|---3~--------0~--------3~--------0~-----------(3)----|
C|-------------------------------------------5~--------|

0:21     x2
D|--------------------------------------------------------------|
A|--------------------------------------------------------------|
F|--------------0~---------------0~-------------0~--------------|
C|-------5----4~--4~-----5-----4~---4~---5----4~--4~------------|
G|---2-----2----------2-----22---------2----2----------000000---|
C|---2-----2----------2-----22---------2----2----------000000---|
                            ..                               

Chorus x4

       "why do i deny..."
D|---0-------------------------|
A|---5-------------------------|
F|---4-------------------------|
C|---2------7------0-----0-----|
G|---2------5------0-----0-----|
C|---2------5------0-----0-----|

0:56   "sweet surrender..."
D|-------------------------------------------|
A|-------------------------------------------|
F|--------------7~~--------------------------|
C|--------------7~~--------------/7777-------|
G|---2-2-0-2-xx-5~~---2-2-0-2-xx-/5555-\4----|
C|---2-2-0-2-xx-------2-2-0-2-xx-/5555-\4----|

D|------------------------------------------|
A|------------------------------------------|
F|--------------7~~---77777777--------------|
C|--------------7~~---55555555--------------|
G|---2-2-0-2-xx-5~~---55555555-44444400~----|
C|---2-2-0-2-xx-------55555555-44444400~----|

Repeat Verse

1:30
D|-------0------------------------------------------------|
A|-------5------------------------------------------------|
F|-------4------------------------0~------0~-----0~-------|
C|----------------7-----------------4~------4~------4~----|
G|---2~------/5--------0---0---0~-------------------------|
C|---2~------/5----------5-----0~-------0------0----------|

1:47
D|-----------------------------------------------|
A|-----------------------------------------------|
F|-----------------------------------------------|
C|---------------7777----------------------------|
G|---2----2-0-2--5555----2----2-0-2----0----0----|
C|---2----2-0-2--5555----2----2-0-2-00-0-00-0----|
                                    ..   ..
D|---------------------------------------|
A|---------------------------------------|
F|---------------------------------------|
C|---------------77777777777777777700----|
G|---2----2-0-2--55555555555544444400----|
C|---2----2-0-2--55555555555544444400----|
                                    
Repeat Chorus

2:22
D|-------------------------------------------|
A|-------------------------------------------|
F|--------------7~~--------------------------|
C|--------------7~~--------------/7777-------|
G|---2-2-0-2-xx-5~~---2-2-0-2-xx-/5555-\4----|
C|---2-2-0-2-xx-------2-2-0-2-xx-/5555-\4----|

D|------------------------------------------|
A|------------------------------------------|
F|--------------7~~---77777777--------------|
C|--------------7~~---55555555--------------|
G|---2-2-0-2-xx-5~~---55555555-44444400~----|
C|---2-2-0-2-xx-------55555555-44444400~----|

2:39
D|--------------------------------------------------|
A|--------------------------------------------------|
F|---------4~--------2~--------4~--------2~---------|
C|------2~--------0~--------2~--------0~------------|
G|---3~--------0~--------3~--------0~---------------|
C|--------------------------------------------------|

2:56   x2
D|-----------------------------------------|
A|-----------------------------------------|
F|---4--4-----4--4-4-----------------------|
C|---2--2-----2--2-2-----------------------|
G|---3333333333333333-0--0-----0--0-0------|
C|--------------------0000000000000000-----|
      .. ..... .. . .  .. ..... .. . .

play this x2
D|--------------------------------------------------------------|
A|--------------------------------------------------------------|
F|--------------0~---------------0~-------------0~--------------|
C|-------5----4~--4~-----5-----4~---4~---5----4~--4~------------|
G|---2-----2----------2-----22---------2----2----------000000---|
C|---2-----2----------2-----22---------2----2----------000000---|
                            ..                               
D|---------------|
A|---------------|
F|---------------|
C|---------------|
G|---2-0-2~------|
C|---2-0-2~------|

The End

************************************

| .   palm mute
| /   slide up
| \   slide down
| h   hammer-on
| p   pull-off| ~   vibrato
| +   harmonic
| x   Mute note
| b   Bend
| pb  Pre-bend
| br  Bend release
| pbr Pre-bend release
| brb Bend release bend

************************************
            
Submit corrections

comments powered by Disqus
↑ Back to top | Of Mice And Men Tabs for Repeating Apologies. Lyrics for acoustic guitar and electric guitar. 1 Tablatures and chords are parodies/interpretations of the original songs. You may use it for private study, scholarship, research or language learning purposes only