» » »

Of Mice And Men, Purified Bass tabs (ver.1)

Artists:  A B C D E F G H I J K L M N O P Q R S T U V W X Y Z # 

Purified Bass tabs (ver.1)

Of Mice And Men Tabs
 Rating:
4/5 (4 votes)
Purified lessons Tabs too difficult? Try these video lessons and learn fast
1
                
Tuning: Drop C

Intro [0:00-0:13]
F|----------------------------------------------------------------|
C|----------------------------------------------------------------|
G|----------------------------------------------------------------|
C|3-3-3-3-3-3-3-3-2-2-2-2-2-2-2-2-8-8-8-8-8-8-8-8-8-8-8-8-8-8-8-8-|

F|--------------------------------------|
C|--------------------------------------|
G|--------------------------------------|
C|3-3-3-3-3-3-3-3-2-2-2-2-2-2-2-2-8~~~~-|

Verse 1 [0:13-0:39]
F|--------------------------------------------------|
C|--------------------------------------------------|
G|7~-8---------------------7~-5---------------------|
C|----0000-00-0000-00-00000----0000-00-0000-00-00000|

F|--------------------------------------------|
C|--------------------------------------------|
G|7~-8---------------------7~-5---------------|
C|----0000-00-0000-00-00000----0000-00-0000-0-|

F|----------------------------------------------------------|
C|----------------------------------------------------------|
G|----------------------------------------------------------|
C|0000-00-0000-00-0000-00-000--0000-00-0000-00-0000-00-000--|

Pre-Chorus [0:39-0:59] (Added the end part [87-78-8h10] to the first set. More fun.)
F|----------------------------------------------------|
C|----7-----5-----------------7-----5-----------8-8h10|
G|--5-----3-----------------5-----3---1-1~--87-7------|
C|3-----2-----0-0~--12/1--3-----2---------------------|

F|----------------------------------------------------|
C|----7-----5-----------------7-----5-----------------|
G|--5-----3-----------------5-----3---1-1~--1-1-1-1-1-|
C|3-----2-----0-0~--12/1--3-----2---------------------|

Verse 2 [0:59-1:12]
F|--------------------------------------------------|
C|--------------------------------------------------|
G|7~-8---------------------7~-5---------------------|
C|----0000-00-0000-00-00000----0000-00-0000-00-00000|

F|--------------------------------------------|
C|--------------------------------------------|
G|7~-8---------------------7~-5---------------|
C|----0000-00-0000-00-00000----0000-00-0000-0-|


Breakdown 1 [1:12-1:29]
F|--------------------------------------------------------|
C|------------------333-------------------------777-------|
G|---------------------5553h5----------------------8887h8-|
C|0000-0000000-0000-----------0000-0000000-0000-----------|x2

F|-------------------------|
C|-------------------------|
G|-------------------------|
C|8~----------5~-----------|

Chorus [1:29-1:56]
F|----------------------------------------------------------------|
C|----------------------------------------------------------------|
G|----------------------------------------------------------------|
C|3-3-3-3-3-3-3-3-2-2-2-2-2-2-2-2-8-8-8-8-8-8-8-8-8-8-8-8-8-8-8-8-|x2

F|------------------------------------------------|
C|------------------------------------------------|
G|------------------------------------------------|
C|3-33-3~-3-3-2-22-2~-2-2-8-88-8~-8-8-8-88-8~-8-8-|

F|--------------------------------------|
C|--------------------------------------|
G|--------------------------------------|
C|3-33-3~-3-3-2-22-2~-2-2-8-88-8~-8-8-8~|

Repeat Verse 2 [1:56-2:09]

Bridge/Breakdown 2 [2:09-2:53]
F|-------------------------|
C|-------------------------|
G|-------------------------|
C|0~----------0~-----------|

F|-----------------------------------------|
C|-----------------------------------------|
G|-----------------------------------------|
C|0000-0000--0--0-0--000--0--000-0-000-000-|x4

F|-------------------------|
C|-------------------------|
G|-------------------------|
C|8~----------5~-----------|

Repeat Chorus & Verse 2 [2:53-3:35]

END


| /  slide up
| \  slide down
| h  hammer-on
| p  pull-off
| ~  vibrato
| +  harmonic
| x  Mute note
===============================================================================
            
Submit corrections

comments powered by Disqus
↑ Back to top | Of Mice And Men Bass for Purified. Lyrics for acoustic guitar and electric guitar. 1 Tablatures and chords are parodies/interpretations of the original songs. You may use it for private study, scholarship, research or language learning purposes only