» » »

Of Mice And Men, Product Of A Murder Tabs (ver.1)

Artists:  A B C D E F G H I J K L M N O P Q R S T U V W X Y Z # 

Product Of A Murder Tabs (ver.1)

Of Mice And Men Tabs
 Rating:
4/5 (7 votes)
Product Of A Murder lessons Tabs too difficult? Try these video lessons and learn fast
                ---------------------------------------------------
        Product Of A Murder - Of Mice & Men
---------------------------------------------------

Tuning: Drop C

Intro
D|---11--11--11---------11--11--11--11--13------|
A|-----15--15--15-15-15---15--15--15--15--15----|
F|----------------------------------------------|
C|----------------------------------------------|
G|----------------------------------------------|
C|----------------------------------------------|
0:15
D|-------------------------------------------------------|
A|-------------------------------------------------------|
F|-------------------------------------------------------|x2
C|-------------------------------------------------88----|
G|---1-0-0-0-0-1-0-0-00-00-1-0-0-0-0-1-0-0-666-333-------|
C|---1-0-0-0-0-1-0-0-00-00-1-0-0-0-0-1-0-0---------------|
                     .. ..                 ... ... ..
0:29
D|----------------------------------|
A|----------------------------------|
F|----------------------------------|x1
C|----------------------------------|
G|---1-0-0------1-0-0-00000000------|
C|---1-0-0------1-0-0-00000000------|
                      ........
0:33
D|-----------------------------------------------------------------------|
A|-----------------------------------------------------------------------|
F|-----------------------------------------------------------------------|
C|-----------------------------------------------------------------------|
G|---1-0-0------1-0-0------1-0-0-----1-0-0-00000000-----1-0-0----1-0-0---|
C|---1-0-0------1-0-0------1-0-0-----1-0-0-00000000-----1-0-0----1-0-0---|
                                           ........
0:44   "this gets me by..."
D|------------------------------------------------------------------|
A|------------------------------------------------------------------|
F|------------------------------------------------------------------|
C|---10101010101010-8-8-8-7-7-7-------------------------------------|
G|---8-8-8-8-8-8-8--5-5-5-3-3-3-------------------------------------|
C|---8-8-8-8-8-8-8--5-5-5-3-3-3---13^-0-0-13^-0-0~-13^-00-13^-0-0---|

0:59
D|---------------------------------|
A|---------------------------------|
F|---------------------------------|
C|---------------------------------|
G|---------------------------------|
C|---13^-0-0-13^-0-0--13^-00-13----|
1:02
D|--------------------------------------------------------------|
A|--------------------------------------------------------------|
F|--------------------------------------------------------------|
C|--------------------------------------------------------------|
G|---------------------------------------------------00-0-00----|
C|---13^-0-0-13^-0-0--13^-00-13^-0-0-13^-0-0-13^-0-0-11-1-11----|
                                                     ..   ..
D|----------------------------------------------------------|
A|----------------------------------------------------------|
F|----------------------------------------------------------|
C|----------------------------------------------------------|
G|----------------------------------------------00-0-00-----|
C|---1^-0-0-1^-0-0--1^-00-1^-0-0--1^-0-0-1^-0-0-11-1-11-----|
                                                ..   .. 
Breakdown   x4
D|---------------------------------------------|
A|---------------------------------------------|
F|---------------------------------------------|
C|---------------------------------------------|
G|---000-000--------0-0-0-0-0-0-0--000-000-----|
C|---000-000--------0-0-0-0-0-0-0--000-000-----|
     ... ...        . . . . . . .  ... ...

guitar two bends and releases these 
D|--------------------------|
A|---11^^-----10^^----------|
F|---15^^-----14^^----------|
C|--------------------------|
G|--------------------------|
C|--------------------------|

Repeat Chorus

2:09
D|--------------------------------------------------------------|
A|--------------------------------------------------------------|
F|--------------------------------------------------------------|
C|--------------------------------------------------------------|
G|---------------------------------------------------00-0-00----|
C|---13^-0-0-13^-0-0--13^-00-13^-0-0-13^-0-0-13^-0-0-11-1-11----|
                                                     ..   ..

D|----------------------------------------------------------|
A|----------------------------------------------------------|
F|----------------------------------------------------------|
C|----------------------------------------------------------|
G|----------------------------------------------00-0-00-----|
C|---1^-0-0-1^-0-0--1^-00-1^-0-0--1^-0-0-1^-0-0-11-1-11-----|
                                                ..   .. 
2:24    "this is the way i wanted to live..."
D|---------------------------------------------------------------|
A|---------------------------------------------------------------|
F|---------------------------------------------------------------|
C|---10~-----8~------7~-----10~-----8~-----7~--------------------|
G|---8-~-----5~------3~-----8-~-----8~-----7~--------------------|
C|---8-~-----5~------3~-----8-~-----8~-----7~--------------------|
             "scared of the world..."
D|-------------------------------------------------------|
A|-------------------------------------------------------|
F|-------------------------------------------------------|
C|---3-3-3-3-3-3-7-7-7-7-7-7-8-8-8-8-8-8-8-8-8-8-8-8-----|
G|---1-1-1-1-1-1-3-3-3-3-3-3-5-5-5-5-5-5-5-5-5-5-5-5-----|
C|---1-1-1-1-1-1-3-3-3-3-3-3-5-5-5-5-5-5-5-5-5-5-5-5-----|

    "this is the way i wanted to live..."
D|--------------------------------------------------------|
A|--------------------------------------------------------|
F|--------------------------------------------------------|
C|---1010101010108-8-8-8-7-7-7-1010101010107-7-7-7-7-7----|
G|---8-8-8-8-8-8-5-5-5-5-3-3-3-8-8-8-8-8-8-3-3-3-3-3-3----|
C|---8-8-8-8-8-8-5-5-5-5-3-3-3-8-8-8-8-8-8-3-3-3-3-3-3----|

             "scared of the world..."
D|-------------------------------------------------------|
A|-------------------------------------------------------|
F|-------------------------------------------------------|
C|---3-3-3-3-3-3-7-7-7-7-7-7-8-8-8-8-8-8-8-8-8-8-8-8-----|
G|---1-1-1-1-1-1-3-3-3-3-3-3-5-5-5-5-5-5-5-5-5-5-5-5-----|
C|---1-1-1-1-1-1-3-3-3-3-3-3-5-5-5-5-5-5-5-5-5-5-5-5-----|

Solo
D|------------------------------------13-----13----13-----|
A|----------------------------------11-----11----11-------|
F|---14^-141414/12----------------10-----10----10---------|
C|-----------------12-10--12p10\8-------------------------|
G|--------------------------------------------------------|
C|--------------------------------------------------------|

D|---22p20-22p20-22p20-22p20-22p20-22p20-22p20-22p20-22p20-----|
A|-------------------------------------------------------------|
F|-------------------------------------------------------------|
C|-------------------------------------------------------------|
G|-------------------------------------------------------------|
C|-------------------------------------------------------------|

D|------------------------------------13-----13----13-----|
A|----------------------------------11-----11----11-------|
F|---14^-141414/12----------------10-----10----10---------|
C|-----------------12-10--12p10\8-------------------------|
G|--------------------------------------------------------|
C|--------------------------------------------------------|


D|--------------------------------131313131313/151515----------------|
A|--------------------------------111111111111/131313-1313/-18/20----|
F|---14^-141414/12----------------101010101010/121212-1212/-17/19----|
C|-----------------12-10--12p10\8------------------------------------|
G|-------------------------------------------------------------------|
C|-------------------------------------------------------------------|

The End


************************************

| .   palm mute
| /   slide up
| \   slide down
| h   hammer-on
| p   pull-off
| ~   vibrato
| +   harmonic
| x   Mute note
| ^   Bend
| pb  Pre-bend
| br  Bend release
| pbr Pre-bend release
| brb Bend release bend

************************************
            
Submit corrections

comments powered by Disqus
↑ Back to top | Of Mice And Men Tabs for Product Of A Murder. Lyrics for acoustic guitar and electric guitar. Tablatures and chords are parodies/interpretations of the original songs. You may use it for private study, scholarship, research or language learning purposes only