>
 >
Blame It

Blame It Guitar Tabs

Of Mice And Men - Blame It chords, tabs, tablatures, lyrics

Guitar lessons | Add/correct | Request | Top 50 tabs Artists:  A B C D E F G H I J K L M N O P Q R S T U V W X Y Z 0-9

Blame It Guitar Tabs – Of Mice And Men

CD, Sheet music, Poster

Do you like Blame It? Share with your friends now
Tabs

Tuning: Drop C 
CGCFAD




‘Blame It On The Goose...’
(0:00 - 0:21)
|----------------------------------------------|
|----------------------------------------------|
|----------------------------------------------|
|----------------------------------------------|
|-11-1--1111-11-1111-11--1111-11-1-------------|
|-11-1--1111-11-1111-11--1111-11-1-8”-7”-6”-5”-|
  .. .  .... .. .... ..  .... .. .


‘Ay She Say She Usually Don't...’   ‘Girl What You Drinking..?’
(0:21 - 0:43)                       (0:43 - 0:53)
|-----------------|                 |---------------------------------| 
|-----------------|                 |---------------------------------|   
|-----------------| (x2)            |---------------------------------| 
|-1-------0-------|                 |-1-------------------------------| 
|-1-(x24)-0-(x24)-|                 |-1-(x24)-0~00~-0000~-0~00~-0000~-| 
|-1-------0-------|                 |-1-------0~00~-0000~-0~00~-0000~-| 


‘Fill Another Cup Up...’
(0:53 - 1:10)
|-----------------------------------------------------|
|-----------------------------------------------------|
|-----------------------------------------------------|
|-1---------------------------------------------------|
|-1-(x24)--------------11-1--1111-11-1111-11--1111-11-|
|-1-------8”-7”-6”-5”--11-1--1111-11-1111-11--1111-11-|
                       .. .  .... .. .... ..  .... ..

‘A-A-A-A-A-Alcohol...’
(1:10 - 1:27)
|--------------------------------------------------------------------------|
|--------------------------------------------------------------------------|
|--------------------------------------------------------------------------|
|--------------------------------------------------------------------------|
|-------------------------------11-1--1111-11-1111-11--1111-11-------------|
|-0~00~---0~0~--0~00~---0~0~-0~-11-1--1111-11-1111-11--1111-11-8”-7”-6”-5”-|
  . ..    . .   . ..    . .  .  .. .  .... .. .... ..  .... ..


‘Ohh See...’
(1:27 - 1:48)
|----------------------------------------|
|----------------------------------------|
|----------------------------------------|
|---------------------11-1---11-1-1---0~-|
|-11-1------00-0------11-1---11-1-1---0~-|
|-11-1-(x9)-00-0-(x8)-11-1---11-1-1---0~-|
  ..        ..


‘Inside...’
(1:48 - 2:01)
|-------------------------------------------------------|
|-------------------------------------------------------|
|-------------------------------------------------------|
|-------------------------------------------------------|
|-00~-0~0~--0~-0~000~0~0~0~-----------------------------|
|-11~-1~1~--1~-1~111~1~1~1~--0--0-0-000-0-000-0-0-000-0-|
  ..  . .   .  . ... . . .                                       


‘Show You...’
(2:01 - 2:12)
|-----------------------------------------------------|
|-----------------------------------------------------|
|-----------------------------------------------------|
|-----------------------------------------------------|
|-00~-0~0~--0~-0~000~0~0~0~---------------------------|
|-11~-1~1~--1~-1~111~1~1~1~--12\8-7-7-7-66-666-55-555-|
  ..  . .   .  . ... . . .


‘Girl, I Know...’        ‘Soo I Made Her Say...’
(2:12 - 2:34)            (2:34 - 2:46)
|-----------------|      |---------------|
|-----------------|      |---------------|
|-----------------| (x2) |---------------|
|-1-------0-------|      |-11-xx-------x-|
|-1-(x24)-0-(x24)-|      |-11-xx-------x-|
|-1-------0-------|      |-11-xx-------x-|


‘She Looked Me Dead In The Eye...’
(2:46 - 3:18)
|----------------------------------------------------------|
|----------------------------------------------------------|
|----------------------------------------------------------|
|-1--------------------1-------0-------1-------------------|
|-1-(x24)--------------1-(x24)-0-(x24)-1-(x24)-------------|
|-1-------8”-7”-6”-5”--1-------0-------1-------8”-7”-6”-5”-|


Blame It On...’
(3:18 - 3:24)
|--------------------------------|
|--------------------------------|
|--------------------------------|
|--------------------------------|
|-11-1--1111-11-1111-11--1111-11-|
|-11-1--1111-11-1111-11--1111-11-|
  .. .  .... .. .... ..  .... ..


‘Blame It On The A-A-A-A-A-Alcohol
(3:24 - 4:03)
|--------------------------------------------------------------------------|
|--------------------------------------------------------------------------|
|--------------------------------------------------------------------------|
|--------------------------------------------------------------------------|
|-------------------------------11-1--1111-11-1111-11--1111-11-------------|
|-0~00~---0~0~--0~00~---0~0~-0~-11-1--1111-11-1111-11--1111-11-8”-7”-6”-5”-|
                                .. .  .... .. .... ..  .... ..

END.







Please Comment/Correct/Rate. (:





Comments


Popular Of Mice And Men tabs & chords
Bones Exposed Bass Tabs
Still Ydgn 1 Bass Tabs
Farewell To Shady Glade Tabs
Im A Monster Tabs
My Understandings Tabs
My Understandings 1 Tabs
Product Of A Murder Tabs
Second And Sebring Tabs
They Don't Call It The South For Nothing 1 Tabs
This One's For You Tabs


Song lyrics



↑ Back to top | Tablatures and chords are parodies/interpretations of the original songs. You may use it for private study, scholarship, research or language learning purposes only
© 2014 AZChords.com Contact us | Privacy policy | DMCA | Add/correct tabs | Request tabs | Top 50 tabs