» » »

On My Way Tabs (ver.3)

Artists:  A B C D E F G H I J K L M N O P Q R S T U V W X Y Z # 

On My Way Tabs (ver.3)

Off By One
Rating:
0/5 (0 votes)

Hard to play? Try these video lessons and learn fast.
                Tuning: Standard

Intro:

E|---------------------------------------------------------------------------------------------
B|---------------------------------------------------------------------------------------------
G|---------------------------------------------------------------------------------------------
D|---3-3--10-8-7--------10-8-7----------10-8-7---10-10--8-7-5---------------------- x 4
A|-------------------3-3-------------5-5-----------------------------------------------------
E|---------------------------------------------------------------------------------------------

Verse 1: (These are the chords that are played, just play them as many times as you hear in the song)

E|---------------------------------------------------------------------------------------------
B|---------------------------------------------------------------------------------------------
G|---10----------------------------------------------------------------------------------------
D|---10--- 10---8----10--12----------------------------------------------------------- x 2
A|----8----10---8----10--12----------------------------------------------------------------
E|----------8----6-----8-- 10------------------------------------------------------------

Chorus:

E|------------------------------------------------------------------------------------------------
B|------------------------------------------------------------------------------------------------
G|--10-10-10--x-------------------------------------------------10------------------------------
D|--10-10-10--x--10-10-10-x---8-8-8-x--10-10-10-x--------- 10--10--8--  10--- ------ x 2
A|---8--8---8--x--10-10-10-x---8-8-8-x--10-10-10-x---x 2----8---10--8---10---------------
E|------------------8---8--8- x---6-6-6-x---8--8---8-x---------------8---6----8--------------

Now Play:
Intro
Verse 1
Chorus

Then its just these 2 chords a bunch of times:

E|-----------
B|------------
G|-10--------
D|-10-- 8---
A|--8---8----
E|------6---

Then these chords:

E|---------------------------
B|---------------------------
G|-10----------------------
D|-10---10---12---8-----
A|--8-- 10---12---8----
E|-------8---10---6------

Then the intro again a few times, then Verse 1 again, and end on:
G|-10--
D|-10--
A|--8--
E|------

Hey sorry if it's wrong for some reason this one was a little confusing. I think thats my last tab now I need to start focusing on getting a band and playing my own music.
            
Hard to play? Try these video lessons and learn fast. | Correct




comments powered by Disqus
↑ Back to top | Tablatures and chords are parodies/interpretations of the original songs. You may use it for private study, scholarship, research or language learning purposes only