» » »

Off By One, On My Way Bass tabs (ver.1)

Artists:  A B C D E F G H I J K L M N O P Q R S T U V W X Y Z # 

On My Way Bass tabs (ver.1)

Off By One Tabs
Rating:
0/5 (0 votes)
On My Way lessons Tabs too difficult? Try these video lessons and learn fast
                this is mi first tab and im pretty sure its correct it might hav a few
mistakes but other then that hope u enjoi it its a great song
Intro(bass enters at 0:04)
G:----------------------------------|  |----------------------------------|
D:-3~~~~~~~-------------------------|  |-3-33333--------------------------|
A:----------------------------------|x1|--------3-33333335-555551-1111111-|x2
E:----------------------------------|  |----------------------------------|

Verse
G:------------------------------------------------------------------|
D:-3----------------------------232--------77-55-3------------------|
A:-----------------3333333333333---55555555--------1111111155555555-|x1
E:------------------------------------------------------------------|

G:------------------------------------------------------------------|
D:-3333333333333333-------------232--------77-55-3------------------|
A:-----------------3333333333333---55555555--------1111111155555555-|x1
E:------------------------------------------------------------------|

Pre Chorus
G:------------------|
D:-3~~~~~~~---------|
A:------------------|x1
E:------------------|

Chorus
G:----------------------------------|
D:-3-33333--------------------------|
A:--------3-33333335-555551-1111111-|x4
E:----------------------------------|

Pre Verse
G:------------------------------------------------------------------|
D:-3~~~~~~~---------------------------------------------------------|
A:-----------------3~~~~~~~--------5~~~~~~~--------1~~~----3~~~-----|x1
E:------------------------------------------------------------------|

Repeat:
Verse
Pre Chorus
Chorus

Bridge
G:---------------|  |---------------------------|
D:-3-------------|  |-3-------------------------|
A:----------11h3-|x2|----------11h3333333333333-|x1
E:---------------|  |---------------------------|

G:---------------|  |---------------------------|
D:-3--3--3-------|  |-3--3--3-------------------|
A:----------11h3-|x2|----------11h3333333333333-|x1
E:---------------|  |---------------------------|

G:--------------------------|  |--------------------------|
D:--------------------------|  |--------------------------|
A:-5-55-55-55-51-11-11-11-1-|x3|-5-55-55-55-53-33-33-33-3-|x1
E:--------------------------|  |--------------------------|

G:----------------------------------|  |----------------------------------|
D:-3-3-333--------------------------|  |-3-3-333--------------------------|
A:--------3-33333335-5-5551-1111111-|x3|--------3-33333335~~~-------------|x1
E:----------------------------------|  |----------------------------------|

Chorus/Outro
G:----------------------------------|  |----------------------------------|
D:-3-33333--------------------------|  |-33333333-------------------------|
A:--------3-33333335-555551-1111111-|x2|---------333333335555555511111111-|x1
E:----------------------------------|  |----------------------------------|

G:----------------------------------------------------------------------|
D:-33333333------------------------3~~~-----------------------3~--------|
A:---------333333335555555511111111-------------------------------------|x1
E:----------------------------------------------------------------------|
            

comments powered by Disqus
↑ Back to top | Off By One Bass for On My Way. Lyrics for acoustic guitar and electric guitar. Tablatures and chords are parodies/interpretations of the original songs. You may use it for private study, scholarship, research or language learning purposes only