» » »

Off By One, On My Way Tabs (ver.2)

Artists:  A B C D E F G H I J K L M N O P Q R S T U V W X Y Z # 

On My Way Tabs (ver.2)

Off By One Tabs
Rating:
0/5 (0 votes)
On My Way lessons Tabs too difficult? Try these video lessons and learn fast
                Tuning: Standard (E-A-D-G-B-e)




Intro: (Repeat 4 Times)

e|---------------------------------------------------------------------------------
B|---------------------------------------------------------------------------------
G|---------------------------------------------------------------------------------
D|-------10-8-7--------10-8-7--------8-7-8---10-10-8-7-8-7-------------------------
A|--8-8-------------------------5-5------------------------------------------------
E|----------------8-8--------------------------------------------------------------



Verse 1:

e|---------------------------------------------------------------------------------
B|---------------------------------------------------------------------------------
G|--10------------7------------10--------7------------10---------------------------
D|--10-------10---7---8---10---10---10---7---8---10---10(Let Chord Ring)-----------
A|---8-------10---5---8---10----8---10---5---8---10----8---------------------------
E|------------8-------6----8---------8-------6----8--------------------------------



Chorus: (Repeat 4 Times)

e|---------------------------------------------------------------------------------
B|---------------------------------------------------------------------------------
G|--10-10-10-10-10------------------------7-7-7-7-7--------------------------------
D|--10-10-10-10-10--10-10-10-10-10-10-10--7-7-7-7-7--8-8-8-8-8-8-8-----------------
A|---8--8--8--8--8--10-10-10-10-10-10-10--5-5-5-5-5--8-8-8-8-8-8-8-----------------
E|-------------------8--8--8--8--8--8--8-------------6-6-6-6-6-6-6-----------------



Solo:

e|---------------------------------------------------------------------------------
B|---------------------------------------------------------------------------------
G|---------------------------------------------------------------------------------
D|-----10-8-7----8-7--------5-7---10-10-8-7-8-7------------------------------------
A|--8----------------8-5--8-----5--------------------------------------------------
E|------------8--------------------------------------------------------------------



Verse 2:

e|---------------------------------------------------------------------------------
B|---------------------------------------------------------------------------------
G|--10------------7------------10--------7------------10---------------------------
D|--10-------10---7---8---10---10---10---7---8---10---10(Let Chord Ring)-----------
A|---8-------10---5---8---10----8---10---5---8---10----8---------------------------
E|------------8-------6----8---------8-------6----8--------------------------------



Chorus: (Repeat 4 Times)

e|---------------------------------------------------------------------------------
B|---------------------------------------------------------------------------------
G|--10-10-10-10-10------------------------7-7-7-7-7--------------------------------
D|--10-10-10-10-10--10-10-10-10-10-10-10--7-7-7-7-7--8-8-8-8-8-8-8-----------------
A|---8--8--8--8--8--10-10-10-10-10-10-10--5-5-5-5-5--8-8-8-8-8-8-8-----------------
E|-------------------8--8--8--8--8--8--8-------------6-6-6-6-6-6-6-----------------



Bridge Part 1: (Repeat 2 Times)

e|--Play 3 Times---|-------Play 1 Time---------------------------------------------
B|-----------------|---------------------------------------------------------------
G|--10-10-10-------|---------------------------------------------------------------
D|--10-10-10-10\8--|--10-10-10-10-10-10-10-10-10-10-10-10--------------------------
A|---8--8--8-10\8--|--10-10-10-10-10-10-10-10-10-10-10-10--------------------------
E|------------8\6--|---8--8--8--8--8--8--8--8--8--8--8--8--------------------------


Bridge Part 2:

e|-------------Play 3 Times-----------|----------------Play 1 Time-----------------
B|------------------------------------|--------------------------------------------
G|--7-7-7-7-7-7-7-7-------------------|--7-7-7-7-7-7-7-7---------------------------
D|--7-7-7-7-7-7-7-7--8-8-8-8-8-8-8-8--|--7-7-7-7-7-7-7-7--10-10-10-10-10-10-10-10--
A|--5-5-5-5-5-5-5-5--8-8-8-8-8-8-8-8--|--5-5-5-5-5-5-5-5--10-10-10-10-10-10-10-10--
E|-------------------6-6-6-6-6-6-6-6--|--------------------8--8--8--8--8--8--8--8--



Lead Into Final Chorus:

e|---------------------------------------------------------------------------------
B|---------------------------------------------------------------------------------
G|---------------------------------------------------------------------------------
D|-------10-8-7--------10-8-7--------8-7-8---10-10-8-7-8-7-------------------------
A|--8-8-------------------------5-5------------------------------------------------
E|----------------8-8--------------------------------------------------------------



Chorus: (Repeat 4 Times)

e|---------------------------------------------------------------------------------
B|---------------------------------------------------------------------------------
G|--10-10-10-10-10------------------------7-7-7-7-7--------------------------------
D|--10-10-10-10-10--10-10-10-10-10-10-10--7-7-7-7-7--8-8-8-8-8-8-8-----------------
A|---8--8--8--8--8--10-10-10-10-10-10-10--5-5-5-5-5--8-8-8-8-8-8-8-----------------
E|-------------------8--8--8--8--8--8--8-------------6-6-6-6-6-6-6-----------------



Ending:

e|---------------------------------------------------------------------------------
B|---------------------------------------------------------------------------------
G|--10-----------------------------------------------------------------------------
D|--10(Let Chord Ring)-------------------------------------------------------------
A|---8-----------------------------------------------------------------------------
E|---------------------------------------------------------------------------------
            

comments powered by Disqus
↑ Back to top | Off By One Tabs for On My Way. Lyrics for acoustic guitar and electric guitar. Tablatures and chords are parodies/interpretations of the original songs. You may use it for private study, scholarship, research or language learning purposes only