>
 >
Threatening Skies

Threatening Skies Bass Tabs

Obituary - Threatening Skies chords, tabs, tablatures, lyrics

Guitar lessons | Add/correct | Request | Top 50 tabs Artists:  A B C D E F G H I J K L M N O P Q R S T U V W X Y Z 0-9

Threatening Skies Bass Tabs – Obituary

CD, Sheet music, Poster

Do you like Threatening Skies? Share with your friends now
Bass TabsTabsTabs v2
Tune Down

F||-------------------------------|-------------------------------||
C||*------------------------------|------------------------------*||
G||*------------------------------|------------------------------*||
D||---0--0--0-0-0-0-0--0--0-0-0-0-|--0--0--0-0-0-0-0--0--0-0-0-0--||


                                                                
------------------------------||-------------------------------|
------------------------------||*------------------------------|
------------------------------||*------------------------------|
--0--0--0-0-0-0-0--0--0-0-0-0-||---0--0--0-0-0-0-0--0--0-0-0-0-|


                               3x                                
-------------------------------||-------------------------------|
------------------------------*||*------------------------------|
--3--3--3-3-3-3---------------*||*------------------------------|
----------------3--3--3-3-1-1--||---0--0--0-0-0-0-0--0--0-0-0-0-|


                           3x                               
---------------------------||------------------------------|
--------------------------*||------------------------------|
--0----0--1----1--1-1-1-1-*||------------------------------|
---------------------------||--0--0--0-0-0-0-0--0--0-0-0-0-|


                                                                
------------------------------||-------------------------------|
------------------------------||*------------------------------|
------------------------------||*------------------------------|
--0--0--0-0-0-0-0--0--0-0-0-0-||---0--0--0-0-0-0-0--0--0-0-0-0-|


                               3x                                
-------------------------------||-------------------------------|
------------------------------*||*------------------------------|
--3--3--3-3-3-3---------------*||*------------------------------|
----------------3--3--3-3-1-1--||---0--0--0-0-0-0-0--0--0-0-0-0-|


                                                          
--------------------------|------------------------------|
--------------------------|------------------------------|
--0----0--1----1--1-1-1-1-|------------------------------|
--------------------------|--0--0--0-0-0-0-0--0--0-0-0-0-|


                                                        
---------------------------||--------------------------|
--------------------------*||--------------------------|
--0----0--1----1--1-1-1-1-*||--0----0--1----1--1-1-1-1-|
---------------------------||--------------------------|


                                                            
|----------------------------|----------------------------||
|*---------------------------|---------------------------*||
|*--0/-3---------------------|--0/-3---------------------*||
|---------3--2----2--2-2-2-2-|--------3--2----2--2-2-2-2--||


                                                          
------------------------------|--------------------------|
------------------------------|--------------------------|
------------------------------|--0----0--1----1--1-1-1-1-|
--0--0--0-0-0-0-0--0--0-0-0-0-|--------------------------|


                                                          
------------------------------|--------------------------|
------------------------------|--------------------------|
------------------------------|--0----0--1----1--1-1-1-1-|
--0--0--0-0-0-0-0--0--0-0-0-0-|--------------------------|


                                                              
|-------------------------------|---------------------------||
|*------------------------------|--------------------------*||
|*------------------------------|--0----0--1----1--1-1-1-1-*||
|---0--0--0-0-0-0-0--0--0-0-0-0-|---------------------------||


                                                           
----------------------------|----------------------------||
*---------------------------|---------------------------*||
*--0/-3---------------------|--0/-3---------------------*||
---------3--2----2--2-2-2-2-|--------3--2----2--2-2-2-2--||


                                                        
---------------------------|---------------------------|
---------------------------|---------------------------|
--0/-3---------------------|--0/-3---------------------|
--------3--2----2--2-2-2-2-|--------3--2----2--2-2-2-2-|


                                                        
---------------------------|---------------------------|
---------------------------|---------------------------|
--0/-3---------------------|--0/-3---------------------|
--------3--2----2--2-2-2-2-|--------3--2----2--2-2-2-2-|


                                                        
---------------------------|---------------------------|
---------------------------|---------------------------|
--0/-3---------------------|--0/-3---------------------|
--------3--2----2--2-2-2-2-|--------3--2----2--2-2-2-2-|


                                                        
---------------------------|---------------------------|
---------------------------|---------------------------|
--0/-3---------------------|--0/-3---------------------|
--------3--2----2--2-2-2-2-|--------3--2----2--2-2-2-2-|


                                                             
---------------------------||-------------------------------|
---------------------------||*------------------------------|
--0/-3---------------------||*------------------------------|
--------3--2----2--2-2-2-2-||---0--0--0-0-0-0-0--0--0-0-0-0-|


                                                                
-------------------------------||------------------------------|
------------------------------*||------------------------------|
------------------------------*||------------------------------|
--0--0--0-0-0-0-0--0--0-0-0-0--||--0--0--0-0-0-0-0--0--0-0-0-0-|


                                                                3x
|-------------------------------|-------------------------------||
|*------------------------------|------------------------------*||
|*------------------------------|--3--3--3-3-3-3---------------*||
|---0--0--0-0-0-0-0--0--0-0-0-0-|----------------3--3--3-3-1-1--||


                                                           3x
-------------------------------|---------------------------||
*------------------------------|--------------------------*||
*------------------------------|--0----0--1----1--1-1-1-1-*||
---0--0--0-0-0-0-0--0--0-0-0-0-|---------------------------||


                                                           
----------------------------|----------------------------||
*---------------------------|---------------------------*||
*--0/-3---------------------|--0/-3---------------------*||
---------3--2----2--2-2-2-2-|--------3--2----2--2-2-2-2--||


                                                                
------------------------------|--------------------|----------||
------------------------------|--------------------|----------||
------------------------------|--------------------|----------||
--0--0--0-0-0-0-0--0--0-0-0-0-|--0--0--------------|----------||





Comments


Popular Obituary tabs & chords
Redneck Stomp Bass Tabs
Buried Alive 1 Tabs
Don't Care 1 Tabs
Download Tabs
Final Thoughts Tabs
Immortal Visions 1 Tabs
Infected 1 Tabs
Rewind Tabs
The End Complete Tabs
Words Of Evil Tabs


Song lyrics



↑ Back to top | Tablatures and chords are parodies/interpretations of the original songs. You may use it for private study, scholarship, research or language learning purposes only
© 2014 AZChords.com Contact us | Privacy policy | DMCA | Add/correct tabs | Request tabs | Top 50 tabs