» » »

Threatening Skies Tabs (ver.2)

Artists:  A B C D E F G H I J K L M N O P Q R S T U V W X Y Z # 

Threatening Skies Tabs (ver.2)

Obituary
Rating:
0/5 (0 votes)

Hard to play? Try these video lessons and learn fast.
                Tuning: "D"G"C"F"A"D"

. Palm Mute
" Tremolo Pick
t Tap


Riff 1
|---------------------------------------|
|---------------------------------------|
|---------------------------------------|
|--2-2------2-2------2-2------2-2-------|
|--2-2------2-2------2-2------2-2-------|
|--0-0-0000-0-0-0000-0-0-0000-0-0-0000--|
       ....     ....     ....     ....

Riff 2
|--------------------------------------|
|--------------------------------------|
|--------------------------------------|
|------------------5-5-5---------------|
|--2-------2-------3-3-3--5--5-5-5--3--|
|--0--0000-0--0000--------3--3-3-3--1--|
      ....    ....

Riff 3
|---------------------------------|
|---------------------------------|
|---------------------------------|
|---------------------------------|
|--2------2------7-----8--8-8888--|
|--0-0000-0-0000-5--0--6--6-6666--|
     ....   ....    .

Riff 4-A
|-------------------|
|-------------------|
|-------------------|
|----5--------------|
|--5-3---4--4-4444--|
|--3---0-2--2-2222--|
       .

Note: Riff 4-B and 4-C are the solo riffs.


Riff 4-B          x4
|-------------------|
|-------------------|
|-------------------|
|-------------------|
|--5-----4----------|
|--3--0--2--000000--|
      .     ......

Riff 4-C          x4
|-------------------|
|-------------------|
|-------------------|
|----5--------------|
|--5-3---4----------|
|--3---0-2--000000--|
       .    ......

Solo ~D Major (Ionian)~
|---------------------------------------t17p15p14p12-t17p15p14p12-|
|--15~----14~----15h17p15p14-----14~------------------------------|
|----------------------------16-----------------------------------|
|-----------------------------------------------------------------|
|-----------------------------------------------------------------|
|-----------------------------------------------------------------|

-t17p15p14p12-t17p15p14p12-t17p15p14p12-t17p15p14p12-t17p15p14p12-|
------------------------------------------------------------------|
------------------------------------------------------------------|
------------------------------------------------------------------|
------------------------------------------------------------------|
------------------------------------------------------------------|

-t17p15p14p12-----------------------------------------------------|
----------------------------14"-15"-17"-15h17p15p14-15~----(15)/--|
--------------------14"-16"---------------------------------------|
----------------17"-----------------------------------------------|
------------------------------------------------------------------|
------------------------------------------------------------------|

------------------------------------------------------------------|
-----------------------------------------14~----------------------|
------------------------------------14"---------------------------|
---------------------14"--16"--17"--------------------------------|
----------------12"-----------------------------------------------|
-12"--14"--15"----------------------------------------------------|
  .    .    .    .
            
Hard to play? Try these video lessons and learn fast. | Correct




comments powered by Disqus
↑ Back to top | Tablatures and chords are parodies/interpretations of the original songs. You may use it for private study, scholarship, research or language learning purposes only