» » »

Godly Beings Tabs (ver.2)

Artists:  A B C D E F G H I J K L M N O P Q R S T U V W X Y Z # 

Godly Beings Tabs (ver.2)

Obituary
Rating:
0/5 (0 votes)

Hard to play? Try these video lessons and learn fast.
                -------------------------------------------------------------------------------
                             Godly beings - Obituary
-------------------------------------------------------------------------------


Tuning: B, could actually use standard but a down-tuned guitar has a much heavier and 
brutal sound even on the higher notes

INTRO/OUTRO

|---------------------------------------------------------------------------|
|---------------------------------------------------------------------------|
|---------------------------------------------------------------------------|
|---------------------------------------------------------------------------|
|---------------------------------------------------------------------------|
|-555555555555-66-99--------------------------------------------------------|
Repeat as necessary for both parts, listen to song
|---------------------------------------------------------------------------|
|---------------------------------------------------------------------------|
|---------------------------------------------------------------------------|
|---------------------------------------------------------------------------|
|---------------------------------------------------------------------------|
|-888888888888-66-99--------------------------------------------------------|

MIDDLE SECTION 1ST RIFF

|---------------------------------------------------------------------------|
|---------------------------------------------------------------------------|
|---------------------------------------------------------------------------|
|-----9-------6-5-----------------------------------------------------------|
|-5-8-7-8---5-4-3-4---------------------------------------------------------|
|-5-8---8---5-----4---------------------------------------------------------|

MIDDLE SECTION 2ND RIFF

|---------------------------------------------------------------------------|
|---------------------------------------------------------------------------|
|---------------------------------------------------------------------------|
|----7----------------------------------------------------------------------|
|-5--5--6--8--6-------------------------------------------------------------|
|-5-----6--8--6-------------------------------------------------------------|
Let each power chord ring, listen to song to get pattern, all notes are correct

SOLO (All notes are here, but listen to song to figure out when to repeat.)

|-----------------------|---------------------------------------------------------|
|-17b--14b-17b-14b-16b--|------------14-14-15-15-17-17-14-14-17\14-17\14-16-14-16b|
|-----------------------|-16--16--14----------------------------------------------|
|-----------------------|---------------------------------------------------------|
|-----------------------|---------------------------------------------------------|
|-----------------------|---------------------------------------------------------|
                     x  x
|-------17-|-20/17----------------------------------------------------------|
|----19----|-------19/17----------------------------------------------------|
|-19-------|----------------------------------------------------------------|
|----------|----------------------------------------------------------------|
|----------|----------------------------------------------------------------|
|----------|----------------------------------------------------------------|
Slide down notes from 20-13 on second string using wammy for ending. Using hammers and 
offs

And there we have a fully tabbed and mostly correct song, the solo is only debatable 
I didn't tab the last few notes but I have explained what to do. ENJOY!

| #b  bend
| /  slide up
| \  slide down
| h  hammer-on
| p  pull-off
| ~  vibrato
| +  harmonic
| x  Mute note
===============================================================================
            
Hard to play? Try these video lessons and learn fast. | Correct




comments powered by Disqus
↑ Back to top | Tablatures and chords are parodies/interpretations of the original songs. You may use it for private study, scholarship, research or language learning purposes only