» » »

Obituary, Final Thought Bass tabs (ver.1)

Artists:  A B C D E F G H I J K L M N O P Q R S T U V W X Y Z # 

Final Thought Bass tabs (ver.1)

Obituary Tabs
 Rating:
4/5 (4 votes)
Final Thought lessons Tabs too difficult? Try these video lessons and learn fast
                Tuning: Drop D (G, D, A, D)
 
Intro/Chorus
G-----------------------------------------------
D-----------------------------------------------
A-----------------------------------------------
D-0-0.-0---0-0---0---0-0---0---0-0---0---0-0---0

Verse 5x
G----------------------------|-------------------------------
D----------------------------|-------------------------------
A----------------------------|-------------------------------
D---0-0-0-0.5.0-0-0-0.4-5-4--|--0-0-0-0---7---0-0-0-0---6-7-6

Chorus (Final thought.final thought.)

Verse5x

play however many times you need to
G---------------------|-------------------------------
D---only play once----|-------------------------------
A---------------------|--------------555.777/888---555 
D-0----0----0----0----|----0000-----------------------
There.s a  little variation in that

Solo (Fear me..) 6x
G-----------------------------------------------------
D-----------------------------------------------------
A-----------------------------------------------------
D-------0---------0-0---9----7----0--------00---9----5

Chorus

Verse (Sign on to you my friend..)

 End 1x
 G---------------------------
 D---------------------------
 A---------------------------
 D-------0-0.0----0-0-0------
            
Submit corrections

comments powered by Disqus
↑ Back to top | Obituary Bass for Final Thought. Lyrics for acoustic guitar and electric guitar. Tablatures and chords are parodies/interpretations of the original songs. You may use it for private study, scholarship, research or language learning purposes only