» » »

Obituary, Final Thought Tabs (ver.2)

Artists:  A B C D E F G H I J K L M N O P Q R S T U V W X Y Z # 

Final Thought Tabs (ver.2)

Obituary Tabs
 Rating:
4.2/5 (5 votes)
Final Thought lessons Tabs too difficult? Try these video lessons and learn fast
1
                                              OBITUARY - FINAL THOUGHTS
                         Copyright: ROADRUNNER RECORDS 1994
                             Version 1.0 APRIL 12, 2002


For Questions, Comments, Newest Version, or Corrections contact


.  - palm mute           /  - slide up to
\  - slide down to       ~  - vibrato
h  - hammer on           b  - bend
p  - pull off            Suffixes for bend ^
ph - pinched harmonic     f - full bend    h - half bend
*  - see comment          r - release      t - tap bend
X  - Staccato            ~ - vibrato bend q - quarter bend
,  - slight palm mute    () - ghost note, sustained note
"  - Tremolo note        <> - Trill

Tunning: "D"G"C"F"A"D" 

Riff 1
|----------------------------------------------------|
|----------------------------------------------------|
|----------------------------------------------------|
|--2-2x--2x----2-2x--2x--------2-2x--2x----2-2x--2x--|
|--2-2x--2x----2-2x--2x--------2-2x--2x----2-2x--2x--|
|--0-0x--0x----0-0x--0x--------0-0x--0x----0-0x--0x--|


Riff 2
|------------------------------------------------------------|
|------------------------------------------------------------|
|------------------------------------------------------------|
|----------7------------5\6-5------------7------------5\6-5--|
|----------7------------5\6-5------------7------------5\6-5--|
|--0-0-0-0-5----0-0-0-0-3\4-3----0-0-0-0-5----0-0-0-0-3\4-3--|
   . . . .      . . . .          . . . .      . . . .

Bridge
|----------------------------------------------|
|----------------------------------------------|
|----------------------------------------------|
|--2----------2----------2----------2----------|
|--2----------2----------2----------2----------|
|--0----------0----------0----------0----------|


Riff 3
|------------------------------------------------|
|------------------------------------------------|
|------------------------------------------------|
|------------------------------------------------|
|------------3333------------------3333----------|
|--0000003333----332233330000003333----33222222--|


Riff 4
|------------------------------------------------|
|------------------------------------------------|
|------------------------------------------------|
|------------------------------------------------|
|------------------------------------------------|
|--00000033222222333333220000003322222233333322--|


Riff 5 (Solo Riff) Solo comming soon!
|----------------------------------------------------|
|----------------------------------------------------|
|----------------------------------------------------|
|--2--------------6----5------2--------------6----5--|
|--2--------------4----3------2--------------4----3--|
|--0----------0-0-4----3------0----------0-0-4----3--|
              . .                        . .


Check out my other tabs by Obituary, Deicide, Six Feet Under,
Catastrophic, Hypocrisy, Grave, Incantation and Death.
            
Submit corrections

comments powered by Disqus
↑ Back to top | Obituary Tabs for Final Thought. Lyrics for acoustic guitar and electric guitar. 1 Tablatures and chords are parodies/interpretations of the original songs. You may use it for private study, scholarship, research or language learning purposes only