» » »

Oasis, Live Forever Bass tabs (ver.3)

Artists:  A B C D E F G H I J K L M N O P Q R S T U V W X Y Z # 

Live Forever Bass tabs (ver.3)

Oasis Tabs
 Rating:
4/5 (4 votes)
Live Forever lessons Tabs too difficult? Try these video lessons and learn fast
                Oasis - Live Forever (Bass tab)
Submitted by brad7a0


The bass is quiet during most of the first verse (11 bars) then there's a fill just before the chorus starts

Intro Fill 

"...you to the bone"
G||-----------------------------|
D||-----------------------------|
A||--5g7--5---------------------|
E||-------------7-----5-----3\--|

Chorus

"Maybe I just wanna fly..."
G||------------------------|---------------------------|
D||------------------------|---------------------------|
A||------------------------|--5----5---0h-5---5-----5--|
E||--0----0----0--0-----0--|---------------------------|

---------------------------|
---------------------------|
---------------------------|
--5----5---0h-5---5-----5--|

---------------------------|------------------------|
---------------------------|------------------------|
--3----3---0h-5---5-----5--|------------------------|
---------------------------|--0----0----0--0-----0--|

---------------------------|---------------------------|
---------------------------|---------------------------|
--5----5---0h-5---5-----5--|---------------------------|
---------------------------|--5----5---0h-5---5-----3--|

---------------------------|---------------------------|
---------------------------|---------------------------|
---------------------------|---------------------------|
--1----1---0h-1---1-----0--|--1----1---0h-1---1-----1--|


Verse (2x)

"Maybe I don't really want to know..."
G||---------------------------|---------------------------|
D||---------------------------|---------------------------|
A||---------------------------|--5----5---0h-5---5-----5--|
E||--3----3---0h-3---3-----3--|---------------------------|


---------------------------|---------------------------|
---------------------------|---------------------------|
---------------------------|--3----3---0h-5---5-----5--|
--5----5---0h-5---5-----5--|---------------------------|


Next comes the chorus again   "Maybe I will never be..."

During the solo, play the Verse and Chorus

After the solo finishes, the bass is quiet for 3 bars then plays the intro fill again

"...just wanna fly"

G||-----------------------------|
D||-----------------------------|
A||--5g7--5---------------------|
E||-------------7-----5-----3\--|

Next play the verse and the first part of the chorus then the chorus/outro

"Maybe you're the same as me..."
G||------------------------|---------------------------|
D||------------------------|---------------------------|
A||------------------------|--5----5---0h-5---5-----5--|
E||--0----0----0--0-----0--|---------------------------|


"...see, you and I are gonna live forever"
---------------------------|-------------------------|
---------------------------|-------------------------|
---------------------------|-------------3--2--------|
--5----5---0h-5---5-----3--|--1----1---0----------5--|

Outro (13x)
G||---------------------------|-------------------------|
D||---------------------------|-------------------------|
A||---------------------------|-------------3--2--------|
E||-------5---3h-5---5-----3--|--1----1---0----------5--|

And finally end on a nice long A note (5th fret, E string)
            
Submit corrections

comments powered by Disqus
↑ Back to top | Oasis Bass for Live Forever. Lyrics for acoustic guitar and electric guitar. Tablatures and chords are parodies/interpretations of the original songs. You may use it for private study, scholarship, research or language learning purposes only