>
 >
Live Forever

Live Forever Guitar Tabs

Oasis - Live Forever chords, tabs, tablatures, lyrics

Guitar lessons | Add/correct | Request | Top 50 tabs Artists:  A B C D E F G H I J K L M N O P Q R S T U V W X Y Z 0-9

Live Forever Guitar Tabs – Oasis

CD, Sheet music, Poster

Do you like Live Forever? Share with your friends now
Bass TabsBass Tabs v2Bass Tabs v3ChordsChords v2Chords v3Chords v4Chords v5Chords v6Chords v7Chords v8Drum TabsTabsTabs v2Tabs v3Tabs v4Tabs v5Tabs v6Tabs v7Tabs v8UkuleleUkulele v2

Live Forever, written by Noel Gallagher, performed by Oasis
Song can be found on the album "Live Forever" and was released as a CD
single.

Chords used:

	 EADGBe
G	(3x0033)
D	(xx0232)
Am7	(x02010)
C	(x32010)
Em	(022000)
Fmaj7	(x33210)

[NOTE: I've tried like crazy to determine if the "Am7" used in this song
is really an "Am", but since the two chords are so similar sounding, I
couldn't be sure. Anyways, I'm pretty sure it's an "Am7" during most of
the song, but an "Am" at the end when Liam's singing "Gonna live forever"
over and over.]


Verse 1
-------
G	       D
Maybe, I don't really wanna know
	 Am7
How your garden grows
C	     D
I just wanna fly


Verse 2
-------
G		D
Lately, did you ever feel the pain
       Am7
in the morning rain
      C		       D	 
as it soaks it to the bone


Chorus
------
Em		     D
  Maybe I just wanna fly
			   Am7
Wanna live I don't wanna die
		   C
Maybe I just wanna breathe
      D		      Em
Maybe I just don't believe
			 D
Maybe you're the same as me
			    Am7
We see things they'll never see
			    Fmaj7
You and I are gonna live forever


End of the song alternates   Am   and   Fmaj7  while Liam's singing
"Gonna live forever" again and again.

I'll be sure to post the tabs for the guitar solos when I have time.






Oasis
"Live Forever"

	Okay, I got all of the solo in there for you, I read in a magazine
that it was played as a pentatonic scale on the 12th, and figured it out 
pentatonic on the 14th so I maybe they were wrong, or maybe you have to
change your tunings.  You decide.  Also the part of the solo where Ive
indicated with *========*, I just pick all the notes in that lick, but
I don't think you are supposed to. I let you figure that part out.

   G        D     Am7     C       Em  
 _X____  XXO___ XO_O_O  X__O_O  O__OOO
 ||||||  |||||| ||||O|  ||||O|  ||||||
 |O||||  |||O|O ||O|||  ||O|||  |OO|||
 O|||OO  ||||O| ||||||  |O||||  ||||||
 ||||||  |||||| ||||||  ||||||  ||||||

RIFF:

|---------------3----------------|-------------3------------------|
|-------1-----------1------------|-----1-----------1--------------|
|----------0-----------0---------|--------0-------------0---------|
|---3----------------------------|-3------------------------------|
|--------------------------------|--------------------------------|
|--------------------------------|--------------------------------|

    (oh yeah)
  G                 D                 
   Maybe,  I dont really wanna know

  D            Am7                 C           D
   How your garden grows, 'cause I just wanna fly

  G                 D                
   Lately, did you ever feel the pain,

  D            Am7              C               D
   In the mornin' rain, as it soaks you to the bone

 Em                    D               D              Am7
   Maybe I just wanna fly, wanna live, I don't wanna die

                       C              D
   Maybe I just wanna breathe, maybe I just dont believe.

 Em                         D                  D           Am7
   Maybe your the same as me, we see things they'll never see

  Am7                          (Play Riff)
   You and I are gonna live forever.

  G                        D   
   I said maybe, I dont really wanna know,

  D             Am7              C             D
   How your garden grows, 'cause I just wanna fly.

  G                 D
   Lately, did you ever fell the pain,

  D            Am7              C               D
   In the mornin' rain, as it soaks you to the bone

  Em                   D                               Am7
   Maybe I will never be, all the things that I wanna be,

                           C                 D              Em               
   Now is not the time to cry, now's the time to find out why.

  Em                          D                              Am7
   I think your the same as me, we see thing they'll never see,

  Am7                        (play riff)
   You and I are gonna live forever. 

 SOLO:
                                                        ~~~~~~~
|--------------------------------|--------------------------------|
|--------------------------------|--*-----------------------------|
|-----------------------12-------|-14-(14)-12------12h14----------|
|-----------------12h14----------|-------------14-----------------|
|--------------------------------|--------------------------------|
|--------------------------------|--------------------------------|

                         ~~~~~~~
|--------------------------------|--------------------------------|
|--*-----------------------------|--------------------------------|
|-14-(14)-12------12h14----------|-12-----12----------------------|
|-------------14-------12--------|-12h14--12------12-----12--12---|
|--------------------------------|----------------12h14--12--14---|
|--------------------------------|--------------------------------|

                                                          ~~~~~~~
|--------------------------------|--------------------------------|
|--------------------------------|--*-----------------------------|
|----------------------12h14-----|-14-(14)-12------12h14----------|
|-12-----------/12--14-----------|-------------14-------12--------|
|-14h15p14-----------------------|--------------------------------|
|--------------------------------|--------------------------------|


|--------------------------------|--*hold bend################----|
|--------------------------------|-15--15-15-15-15-15-15-15-15-15-|
|-12----12----12------12---------|--------------------------------|
|-12h14-12----12h14---12---------|--------------------------------|
|--------------------------------|--------------------------------|
|--------------------------------|--------------------------------|

     *==========================*
|----12--------------------------|--------------------------------|
|---------15--12--15--12---12----|---------------------------*----|
|-----------------------14----14-|-12h14-12----12-12-14-12--14-14-|
|--------------------------------|----------14--------------------|
|--------------------------------|--------------------------------|
|--------------------------------|--------------------------------|

|--------------------------------|--------------------------------|
|--------------------------------|--*---*-------------------12--15|
|-12h14-12--------------------12-|-14--14--14p12-----12--14-------|
|----------14----------12h14-----|---------------14---------------|
|---------------12h14------------|--------------------------------|
|--------------------------------|--------------------------------|

|--*hold bend################----|----12--------------------------|
|-15--15-15-15-15-15-15-15-15-15-|---------15--12--15--12---12----|
|--------------------------------|-----------------------14----14-|
|--------------------------------|--------------------------------|
|--------------------------------|--------------------------------|
|--------------------------------|--------------------------------|

|--------------------------------|--------------------------------|
|------------------------------*-|--------------------------------|
|-12h14-12----12-12-14-12--14-14-|-12h14-12------------------12---|
|----------14--------------------|----------14---------12h14------|
|--------------------------------|---------------12h14------------|
|--------------------------------|--------------------------------|
									~~~~
|--------------------------------|---------------------------------------|
|--------------------------------|---------------------*---*-------------|
|-------------12---------------12|----------------12--14--14--41p12----12|
|-------12h14------------12h14---|----------12h14-------------------14---|
|-12h14------------12h14---------|----12h14------------------------------|
|--------------------------------|---------------------------------------|



   Maybe, I dont really wanna know,
   How your garden grows, 'cause I just wanna fly.
   Lately, did you ever feel the pain,
   In the mornin' rain, as it soaks you to the bone.

   Maybe I just wanna fly, wanna live I don't wanna die,
   Maybe I just wanna breathe, Maybe I just don't believe,
   Maybe your the same as me, we see things they'll never see,
   You and I are gonna live forever.

   Gonna live forever, gonna live forever.
   Gonna live forever, gonna live forever,
   Gonna live forever, gonna live forever.

|~~~~~~~~~~~~~~~~~~~~~~~~~~|
|KEY:			   |
|*   = Full Bend note      |
|~~~ = Vibrato             |
|/   = Slide up to note    |
|\   = slide down to note  |
|( ) = release note        |
|p, h= pull off, hammer on |
 ~~~~~~~~~~~~~~~~~~~~~~~~~~





Comments


Popular Oasis tabs & chords
Do You Know What I Mean 1 Bass Tabs
Im Outta Time Bass Tabs
Some Might Say Bass Tabs
Im Only Sleeping Chords
It's A Crime Chords
Let There Be Love 3 Chords
Lyla Drum Tabs
Helter Skelter Cover Tabs
Live Forever 3 Tabs
Married With Chidren Tabs


Song lyrics



↑ Back to top | Tablatures and chords are parodies/interpretations of the original songs. You may use it for private study, scholarship, research or language learning purposes only
© 2014 AZChords.com Contact us | Privacy policy | DMCA | Add/correct tabs | Request tabs | Top 50 tabs