» » »

Live Forever Bass tabs (ver.1)

Artists:  A B C D E F G H I J K L M N O P Q R S T U V W X Y Z # 

Live Forever Bass tabs (ver.1)

Oasis
Rating:
0/5 (0 votes)

Hard to play? Try these video lessons and learn fast.
                Oasis.
Live Forever. 
Definately Maybe

Intro:

G|--------------|--------------|--------------|--------------||
D|--------------|--------------|--------------|--------------||
A|--------------|--------------|--------------|--------------||
E|--------------|--------------|--------------|--------------||

Verse:
 (G)              (D)              (Am7)            (C)      (D)
G|-------------|-------------|-------------|--------|--------||
D|-------------|-------------|-------------|--------|--------||
A|-------------|-------------|-------------|--------|--------||
E|-------------|-------------|-------------|--------|--------||

 (G)           (D)           (Am7)         (C)      (D)
G|-------------|-------------|-------------|-----------------||
D|-------------|-------------|-------------|-12-14-----------||
A|-------------|-------------|-------------|--------14-12\---||
E|-------------|-------------|-------------|-----------------||

Chorus:
 (Em7)         (D)            (Am7)        (C)      (D)
G|-------------|-------------|-------------|--------|--------||
D|-------------|-------------|-------------|--------|--------||
A|-------------|-5--5--5-5-5-|-------------|---3-3--|---5-5-5||
E|-0--0--0-0-0-|-------------|-5--5--5-5-5-|--------|--------||

 (Em7)         (D)           (Am7)          (C)      (D)
G|-------------|-------------|-------------|--------|--------||
D|-------------|-------------|-------------|--------|--------||
A|-------------|-5--5--5-5-5-|-------------|--------|--------||
E|-0--0--0-0-0-|-------------|-5--5--5-5-5-|11101110|11101110||

Verse:
 (G)           (D)           (Am7)         (C)      (D)
G|-------------|-------------|-------------|--------|------||
D|-------------|-------------|-------------|--------|------||
A|-------------|-5--5--5-5-5-|-------------|---3-3--|-5-5-5||
E|-3--3--3-3-3-|-------------|-5--5--5-5-5-|--------|------||

 (G)           (D)           (Am7)         (C)      (D)
G|-------------|-------------|-------------|--------|------||
D|-------------|-------------|-------------|--------|------||
A|-------------|-5--5--5-5-5-|-------------|---3-3--|-5-5-5||
E|-3--3--3-3-3-|-------------|-5--5--5-5-5-|--------|------||

Chorus:
 (Em7)         (D)            (Am7)        (C)      (D)
G|-------------|-------------|-------------|--------|--------||
D|-------------|-------------|-------------|--------|--------||
A|-------------|-5--5--5-5-5-|-------------|---3-3--|---5-5-5||
E|-0--0--0-0-0-|-------------|-5--5--5-5-5--|--------|--------||

 (Em7)         (D)           (Am7)          (C)      (D)
G|-------------|-------------|-------------|--------|--------||
D|-------------|-------------|-------------|--------|--------||
A|-------------|-5--5--5-5-5-|-------------|--------|--------||
E|-0--0--0-0-0-|-------------|-5--5--5-5-5-|11101110|11101110||

Solo:
 (G)              (D)              (Am7)            (C)      (D)
G|-------------|-------------|-------------|--------|------||
D|-------------|-------------|-------------|--------|------||
A|-------------|-5--5--5-5-5-|-------------|---3-3--|-5-5-5||
E|-3--3--3-3-3-|-------------|-5--5--5-5-5-|--------|------||

 (G)           (D)           (Am7)         (C)      (D)
G|-------------|-------------|-------------|--------|------||
D|-------------|-------------|-------------|--------|------||
A|-------------|-5--5--5-5-5-|-------------|---3-3--|-5-5-5||
E|-3--3--3-3-3-|-------------|-5--5--5-5-5-|--------|------||
 (Em7)         (D)           (Am7)         (C)      (D)
G|-------------|-------------|-------------|--------|--------||
D|-------------|-------------|-------------|--------|--------||
A|-------------|-5--5--5-5-5-|-------------|---3-3--|---5-5-5||
E|-0--0--0-0-0-|-------------|-5--5--5-5-5-|--------|--------||

 (Em7)         (D)           (Am7)         (C)      (D)
G|-------------|-------------|-------------|--------|--------||
D|-------------|-------------|-------------|--------|--------||
A|-------------|-5--5--5-5-5-|-------------|--------|--------||
E|-0--0--0-0-0-|-------------|-5--5--5-5-5-|11101110|11101110||


Verse:

 (G)            (D)            (Am7)          (C)      (D)
G|--------------|--------------|--------------|---------------|------||
D|--------------|--------------|--------------|-12-14---------|------||
A|--------------|--------------|--------------|-------14-12\--|------||
E|--------------|--------------|--------------|---------------|------||

 (Em7)          (D)            (Am7)          (C)      (D)
G|-------------|-------------|-------------|--------|------||
D|-------------|-------------|-------------|--------|------||
A|-------------|-5--5--5-5-5-|-------------|---3-3--|-5-5-5||
E|-3--3--3-3-3-|-------------|-5--5--5-5-5-|--------|------||

Chorus:
 (Em7)          (D)            (Am7)          (C)      (D)
G|-------------|-------------|-------------|--------|------||
D|-------------|-------------|-------------|--------|------||
A|-------------|-5--5--5-5-5-|-------------|---3-3--|-5-5-5||
E|-0--0--0-0-0-|-------------|-5--5--5-5-5-|--------|------||

 (Em7)          (D)            (Am7)          (F)
G|--------------|--------------|--------------|-------------||
D|--------------|--------------|--------------|-------------||
A|--------------|-5--5---5-5-5-|--------------|-------------||
E|-0--0---0-0-0-|--------------|-5--5---5-5-5-|1110-1110--3-||

Outro:
 (Am7)            (F)                              
G|----------------|-------------||
D|----------------|-------------||X
A|----------------|-------------||13
E|s-5--5---5-5-5s3|s1110-1110-3-||

G|----------------|----------------||
D|----------------|----------------||
A|----------------|----------------||
E|--5---hold------|---5----s----17-||
            
Hard to play? Try these video lessons and learn fast. | Correct




comments powered by Disqus
↑ Back to top | Tablatures and chords are parodies/interpretations of the original songs. You may use it for private study, scholarship, research or language learning purposes only