» » »

Oasis, Go Let It Out Bass tabs (ver.2)

Artists:  A B C D E F G H I J K L M N O P Q R S T U V W X Y Z # 

Go Let It Out Bass tabs (ver.2)

Oasis Tabs
 Rating:
4/5 (4 votes)
Go Let It Out lessons Tabs too difficult? Try these video lessons and learn fast
1
                "Go Let It Out from the album Standing On the Shoulder of Giants. This tab is a mixture 
a few different tabs because all of them had right and wrong bits, this is the correct 
(i think).

No Bass on Intro

Pick up the bass!
G|----------------------|
D|-5h7-7~--7-7~~~~~~~~~~| <= let ring
A|----------------------|
E|----------------------|

Verse: 4x
G|------------6h7p6----|
D|-----5h7-7-7-----5h7-|
A|-0~------------------|
E|---------------------|

Chorus:
  Go let it out...
G|-------------------------------|-----------6h7p6----|------------6h7p6-|
D|----------------3-3-3-3-5-5-5-5|----5h7-7-7-----5h7-|-----5h7-7-7------|
A|5-5-5-5-5-5-5-5----------------|0~------------------|-0~---------------|
E|-------------------------------|--------------------|------------------|

G|-------------------------------|-----------6h7p6----|-----------6h7p6--|
D|----------------3-3-3-3-5-5-5-5|----5h7-7-7-----5h7-|-----5h7-7-7------|
A|5-5-5-5-5-5-5-5----------------|0~------------------|-0~---------------|
E|-------------------------------|--------------------|------------------|

  Is it any wonder...		3x
G|---------------------------------|
D|---------3-3-3-3-----------------|
A|-5-5-5-5-----------------3-3-3-3-|
E|-----------------5-5-5-5---------|

Were the keepers...
G|---------------------------------|-----------------|
D|---------------------------------|-----------------|
A|-----------------5-5-5-5-5-5-5-5-|-----------------|
E|-3-3-3-3-3-3-3-3-----------------|-3-3-3-3-3-3-3-3-|

Verse3:						3x
G|------------6h7p6----|------------6h7-/9-|
D|-----5h7-7-7-----5h7-|-----5h7-7-7-------|
A|-0~------------------|-0~----------------|
E|---------------------|-------------------|

Chorus:
G|-------------------------------|-----------6h7p6----|-----------6h7p6-/9-|
D|----------------3-3-3-3-5-5-5-5|----5h7-7-7-----5h7-|----5h7-7-7---------|
A|5-5-5-5-5-5-5-5----------------|0~------------------|-0~-----------------|
E|-------------------------------|--------------------|--------------------|

G|-------------------------------|-----------6h7p6----|-----------6h7p6--|
D|----------------3-3-3-3-5-5-5-5|----5h7-7-7-----5h7-|----5h7-7-7-------|
A|5-5-5-5-5-5-5-5----------------|0~------------------|-0~---------------|
E|-------------------------------|--------------------|------------------|

  Is it any wonder...		3x
G|---------------------------------|
D|---------3-3-3-3-----------------|
A|-5-5-5-5-----------------3-3-3-3-|
E|-----------------5-5-5-5---------|

Were the builders...		  2x
G|----------------------------------|----------------------------------|
D|-------------------------7777-9999|-------------------------7777-797-|
A|----------------5-5/9999----------|----------------5-5/9999---------9|
E|3-3-3-3-3-3-3-3-------------------|3-3-3-3-3-3-3-3-------------------|

Bridge:		   3x
G|-------------------|
D|-------------------|
A|-5/17~-------17\5~-|
E|-------------------|

G|----------------------------------------------------|
D|----------------------------------------------------|
A|-5/17-17-17-17-17-17-17-17-17-17-17-17-17-15-15-12\-|
E|----------------------------------------------------|

Outro
Album Version:
G|-----------------------------|
D|-----------------------------|
A|-5-5-5-5/10-10-1010----------|
E|--------------------888-8888-|

"Familiar to Millions":
G|-------------------------------------|
D|-------------------------------------|
A|-5-554h5-55545-554-3-333/10-10-10-10-|
E|-------------------------------------|
Solo:
G|------------------------------------|
D|------------------------------------|
A|5-554h5-55545-540-3-333-30----------|
E|---------------------------3-33-333-|

End
G|-------------------|
D|-------------------|
A|-5/17~-------17\5~-|
E|-------------------|
"            
Submit corrections

comments powered by Disqus
↑ Back to top | Oasis Bass for Go Let It Out. Lyrics for acoustic guitar and electric guitar. 1 Tablatures and chords are parodies/interpretations of the original songs. You may use it for private study, scholarship, research or language learning purposes only